Song name
# A B C D E F G H I J K L M N O P Q R S T U V W X Y Z

Kiss - Christeen Sixteen tab

Help us improve GuitareTab! Take a short survey!
Christeen Sixteen by KISS
From the album Love Gun
--------------------------------------------------------------------

   intro/chorus                                      repeat
e:-----------------------------------------------------------|
B:----------10-9~------8--7~------10-9~----------------------|
G:--------9-9--9~----7-7--7~----9-9--9~---7--7---------------|
D:--------9----9~----7----7~----9----9~---7--7----6/7-7-5----|
A:----------------------------------------5--5---------------|
E:---(0)------------------------------------------4/5-5-3-0--|


   verses
e:---------------------------------------3~--------------------------------3~|
B:-----10-9~---7--7/8-8-7----------------3~---3~-------10-9---7--7/8-8-7---3~|
G:---9-9--9~---7--7/7-7-7----------------0~---2~-----9-9--9---7--7/7-7-7---0~|
D:---9----9~---7--7/9-9-7---2--2-4/2-2---0~---0~-----9----9---7--7/9-9-7---0~|
A:--------------------------0--0-0/0-0---x----0~---------------------------x~|
E:---------------------------------------3~--------------------------------3~|


e:------------|
B:---3~-------|
G:---2~---2~--|
D:---0~---2~--|
A:---0~---0~--|
E:------------|


    solo(1 guitar)
e:---------------------------------------------------------------------------|
B:--------/10~--------------------------------------/10~---------------------|
G:--/9~-----------11b-11-9-7--9b-9-7-----------/9~---------11b-11-9---12b-12-|
D:-----------------------------------9~--7~----------------------------------|
A:---------------------------------------------------------------------------|
E:---------------------------------------------------------------------------|


e:---10b~~~~--|
B:------------|
G:9-----------|
D:------------|
A:------------|
E:------------|


   "She's been around.."
e:---------------------------------------------------------------------------|
B:---------------------------------------------------------------------------|
G:---4---4-4---4--4-4~----------12-14--15/14/12----14--12--------------------|
D:---4---4-4---4--4-4~----12-14----------------14----------14~---14/12-------|
A:---2---2-2---2--2-2~------------------------------------------------14--14/|
E:---------------------------------------------------------------------------|


e:----------------------------|
B:----------------------------|
G:---------------4--4--4~-----|
D:---------------4--4--4~-----|
A:12/10--10/14~--2--2--2~-----|
E:----------------------------|


                                                      etc.
e:--------------------------------------------------------|
B:-----------------------------------------------/10~-----|
G:---9B/9~----------------------------------/9~-----------|
D:----------7B/7~-6~---6/7~---7/6~---6/7~-----------------|
A:--------------------------------------------------------|
E:--------------------------------------------------------|
Related for Christeen Sixteen tab