Song name
# A B C D E F G H I J K L M N O P Q R S T U V W X Y Z

Kiss - Freak tab

the rhythms a bit of but if u play along to the track it"ll be easy to figure out enjoy :)


intro
e|------------------------------------------------------------------|
B|------------------------------------------------------------------|
G|------------------------------------------------------------------|
D|----------22--5555-------------22--5-5-5-4-2----------------------|
A|22--5555--00--3333---22--5555--00--3-3-3-2-0----------------------|
E|00--3333-------------00--3333-------------------------------------|

verses

e|---------------------------------------------------------------------|
B|---------------------------------------------------------------------|
G|---------------------------------------------------------------------|
D|--7----5----7---------22---5---5--22---5---4---22---5---5----7-------|
A|--5----3----5---------00-0-3-0-3--00-0-3-0-2---00-0-3-0-3----5-------|
E|---------------------------------------------------------------------|


 chorus
e|------------------------------------------------------------------| x2
B|------------------------------------------------------------------|
G|------------------------------------------------------------------|
D|----------22--5555-------------22--5-5-5-4-2----------------------|
A|22--5555--00--3333---22--5555--00--3-3-3-2-0----------------------|
E|00--3333-------------00--3333-------------------------------------|
bridge
e|-----------------------------------------------------------------|
B|-----------------------------------------------------------------|
G|--5---------2---------5----------2-----2222-2222-----------------|
D|--5---------2---------5----------2-----2222-2222-----------------|
A|--3---------0---------3----------0-----0000-0000-----------------|
E|-----------------------------------------------------------------|

power chords for solo
e|------------------------------------------------------------------|
B|------------------------------------------------------------------|
G|------------------------------------------------------------------|
D|----------22--5555-------------22--5-5-5-4-2----------------------|
A|22--5555--00--3333---22--5555--00--3-3-3-2-0----------------------|
E|00--3333-------------00--3333-------------------------------------|
Tap to rate this tab
 
# A B C D E F G H I J K L M N O P Q R S T U V W X Y Z