Song name
# A B C D E F G H I J K L M N O P Q R S T U V W X Y Z

Kiss - Makin Love tab

Key:
/    = slide up
\    = slide down
b    = bend (whole step)
b^   = bend (1/2 step)
b^^  = bend (1 1/2 steps)
pb   = pre-bend
r    = release-bend
t    = tap with righthand finger
h    = hammer-on
p    = pull-off
~    = Vibrato
*    = Natural Harmonic
#(#) = Trill
**   = Artificial Harmonic
x    = Dead notes (no pitch)
P.M. = Palm mute (- -> underneath indicates which notes)
(\)  = Dive w\bar
(/)  = Release w\bar
Tp   = Tap w\plectrum



Rhythm Fig. 1 (P.M. on open 6th)
                                                       
E|----------------------------------------------------|
B|----------------------------------------------------|
G|--------9--------9---------9p-7-----7-------9-------|
D|--------9--------9---------9p-7--9--7-------9-------|
A|--------7--------7--------(7)----9----------7-------|
E|--0--0-----0--0-----0--0-----------------0----------|


                                                     
E|----------------------------------------------------|
B|----------------------------------------------------|
G|--------9--------9---------9p-7-----7----------7----|
D|--------9--------9---------9p-7--9--7----7-----7----|
A|--------7--------7--------(7)----9-------7h-9-------|
E|--0--0-----0--0-----0--0----------------------------|



Rhythm Fig. 2 (P.M. on open 6th)
                                                    
E|----------------------------------------------------|
B|----------------------------------------------------|
G|----------------------------------------------------|
D|----------------------------------------------------|
A|--------7--------7---------7p-5-----5------5h7------|
E|--0--0-----0--0-----0--0---------7------------------|


                                                     
E|----------------------------------------------------|
B|----------------------------------------------------|
G|----------------------------------------------------|
D|----------------------------------------------------|
A|--------7--------7---------7p-5-----5----------5----|
E|--0--0-----0--0-----0--0---------7-------5h-7-------|



Rhythm Fig. 3 (P.M. on open 6th)
                                                     
E|----------------------------------------------------|
B|----------------------------------------------------|
G|----------------------------------------------------|
D|----------------------------------------------------|
A|--------7--------7---------7p-5-----5----------5----|
E|--0--0-----0--0-----0--0---------7-------5h-7-------|



Rhythm Fig. 4 (P.M. on open 6th)
                                                    
E|----------------------------------------------------|
B|----------------------------------------------------|
G|--------9--------9---------9p-7-----7-------9-------|
D|--------9--------9---------9p-7--9--7-------9-------|
A|--------7--------7---------7-----9----------7-------|
E|--0--0-----0--0-----0--0-----------------0----------|


                                                  
E|----------------------------------------------------|
B|----------------------------------------------------|
G|--------9--------9---------7------------------------|
D|--------9--------9---------7----7----7----9---------|
A|--------7--------7---------5----7----7----9---------|
E|--0--0-----0--0-----0--0--------5----5----7---------|





Rhythm Fig. 5 (P.M. on open 6th)
                                                    
E|----------------------------------------------------|
B|----------------------------------------------------|
G|----------------------------------------------------|
D|----------------------------------------------------|
A|--------7--------7---------7p-5-----5------5h7------|
E|--0--0-----0--0-----0--0---------7------------------|


                                                  
E|----------------------------------------------------|
B|----------------------------------------------------|
G|---------------------------7------------------------|
D|---------------------------7----7----7----9---------|
A|--------7--------7---------5----7----7----9---------|
E|--0--0-----0--0-----0--0--------5----5----7---------|




Rhythm Fig. 6 (P.M. on open 6th)

E|----------------------------------------------------|
B|----------------------------------------------------|
G|--------9--------9---------9p-7-----7-------9-------|
D|--------9--------9---------9p-7--9--7-------9-------|
A|--------7--------7--------(7)----9----------7-------|
E|--0--0-----0--0-----0--0-----------------0----------|


                                                     
E|----------------------------------------------------|
B|----------------------------------------------------|
G|--------9--------9-----------7--7--7--7--7--7--7----|
D|--------9--------9-----------7--7--7--7--7--7--7----|
A|--------7--------7-----------5--5--5--5--5--5--5----|
E|--0--0-----0--0-----0--0----------------------------|



Rhythm Fig. 7 (P.M. on open 6th)

E|----------------------------------------------------|
B|----------------------------------------------------|
G|----------------------------------------------------|
D|----------------------------------------------------|
A|--------7--------7---------7p-5-----5------5h7------|
E|--0--0-----0--0-----0--0---------7------------------|



E|----------------------------------------------------|
B|----------------------------------------------------|
G|-----------------------------7--7--7--7--7--7--7----|
D|-----------------------------7--7--7--7--7--7--7----|
A|--------7--------7-----------5--5--5--5--5--5--5----|
E|--0--0-----0--0-----0--0----------------------------|



Rhythm Fig. 8
                                                                                                
E|----------------------------------------------------|
B|----------------------------------------------------|
G|-----------------------7--7--7--7--7--7--7----------|
D|--11--------7----------7--7--7--7--7--7--7----------|
A|--11--------7----------5--5--5--5--5--5--5----------|
E|--9---------5---------------------------------------|
   < - - 2x - - >



Rhythm Fig. 9 (Acoustic 12-string)
                                                      
E|--4-------------------------0-----------------------|
B|--5--------4h5-----4h5------2-----------------------|
G|--6------------6-------6----2-----------------------|
D|--6--------------6-------6--2---------------0h2-----|
A|--4-------------------------0--------2h4-0------4---|
E|----------------------------------------------------|


                                                
E|--4-------------------------0-----------------------|
B|--5--------4h5-----4h5------2-----------------------|
G|--6------------6-------6----2-----------------------|
D|--6--------------6-------6--2-----------------------|
A|--4-------------------------0-----------------------|
E|----------------------------------------------------|



Rhythm Fig. 10

E|----------------------------------------------------|
B|----------------------------------------------------|
G|--------11b-11-9-8------------------------------9~--|
D|--11~--------------11-9-11~-----------9----9--------|
A|---------------------------------9h11---11---11-----|
E|----------------------------------------------------|



E|----------------------------------------------------|
B|-------------------------------------------/15~-----|
G|--------11b-11-9-8----------------------------------|
D|--11~--------------11-9-11~-------------------------|
A|----------------------------------------------------|
E|----------------------------------------------------|
 |                                                    |
 |                                                    |
 |                                                    |
E|----------------------------------------------------|
B|--------10b-10-9------------------------------------|
G|--9~------------11--9-8-9~--------------------------|
D|----------------------------------------------------|
A|----------------------------------------------------|
E|----------------------------------------------------|



Rhythm Fig. 11
                                                 
E|----------------------------------------------------|
B|----------------------------------------------------|
G|-----9p-7-----7~---9--------9p-7-----7~-------------|
D|-----9p-7--9--7~---9--------9p-7--9--7~-------------|
A|-----------9----------------------9-----------------|
E|--0----------------------0--------------------------|
   < - - - - 2x - - - - >


   End 1                                            
E|----------------------------------------------------|
B|----------------------------------------------------|
G|--7--------------7--7--7----------------------------|
D|--7----7---------7--7--7----------------------------|
A|--5----7----7----5--5--5----------------------------|
E|-------5----0---------------------------------------|
             P.M.


   End 2                                     
E|----------------------------------------------------|
B|----------------------------------------------------|
G|--7-------------------------------------------------|
D|--7----7--------------------------------------------|
A|--5----7--------------------------------------------|
E|-------5--------------------------------------------|



Rhythm Fig. 12
                                                  
E|----------------------------------------------------|
B|----------------------------------------------------|
G|----------------------------------------------------|
D|----------------------------------------------------|
A|-----7p-5-----5~---7--------7p-5-----5~-------------|
E|--0--------7-------------0--------7-------7---------|
   < - - - - 2x - - - >

 
   End 1                                           
E|----------------------------------------------------|
B|----------------------------------------------------|
G|--7--------------7--7--7----------------------------|
D|--7----7----2----7--7--7----------------------------|
A|--5----7----2----5--5--5----------------------------|
E|-------5----0---------------------------------------|


   End 2                                       
E|----------------------------------------------------|
B|----------------------------------------------------|
G|--7-------------------------------------------------|
D|--7----7--------------------------------------------|
A|--5----7--------------------------------------------|
E|-------5--------------------------------------------|



Solo

                                                      
E|----------------------------------------------------|
B|--12--12------12--15--12--12--12------12h15p12------|
G|--14b-----14--------------14b-----14----------14----|
D|----------------------------------------------------|
A|----------------------------------------------------|
E|----------------------------------------------------|
    < - - - - 4x - - - - >

                                                   
E|----------------------------------------------12----|
B|--12-15p12----12-15p12----12--15--12h15p12----------|
G|-----------14----------14-----------------14--------|
D|----------------------------------------------------|
A|----------------------------------------------------|
E|----------------------------------------------------|
                             < - - - 3x - - >    
                                                       


E|--15p12---------12-15b--15b---r15-12h15p12----------|
B|--------15p12------------------------------15-------|
G|----------------------------------------------------|
D|----------------------------------------------------|
A|----------------------------------------------------|
E|----------------------------------------------------|
   < - - 4x - - >
  
                               

E|----------------------------------------------------|
B|--15--15p12-----------------------------------------|
G|------------14--14--14p12---------------------------|
D|--------------------------14--14p12h14p12----12-----|
A|------------------------------------------14----14--|
E|----------------------------------------------------|


    
                             
E|----------------------------------------------------|
B|----------------------------------------------------|
G|----------------------------------------------------|
D|----------------------------------------------------|
A|--14--13--12--10b---10~----------10--12-12h14p12h14-|
E|--------------------------10h12---------------------|


   
                                     
E|---------------------------------------------12-----|
B|---------------------------------12-15p12-15--------|
G|------------------12-12h14p12h14--------------------|
D|--12--12h14p12h14-----------------------------------|
A|----------------------------------------------------|
E|----------------------------------------------------|



E|--15b^^---15b^^---15b^^---15b^^---15b^^---15b^^-----|
B|----------------------------------------------------|
G|----------------------------------------------------|
D|----------------------------------------------------|
A|----------------------------------------------------|
E|----------------------------------------------------|


  
                                
E|--15b^^---r15----12h15p12-----12--------------------|
B|--------------------------15------15b----r15--------|
G|----------------------------------------------12----|
D|----------------------------------------------------|
A|----------------------------------------------------|
E|----------------------------------------------------|


                               
E|----------------------------------------------------|
B|--14b-14--12------14--12-----------------12---------|
G|--14b-14--12--14-------------14--12-----------------|
D|-------------------------14----------14------14-----|
A|----------------------------------------------------|
E|----------------------------------------------------|


                                   
E|-------------------------------/22----19--17--------|
B|------12--15--12------------------------------20~---|
G|--14b-------------14--12h14p12----------------------|
D|----------------------------------------------------|
A|----------------------------------------------------|
E|----------------------------------------------------|


                                                   
E|----------22b~--------------------------------------|
B|--17--20--------------------------------------------|
G|----------------------------------------------------|
D|----------------------------------------------------|
A|----------------------------------------------------|
E|----------------------------------------------------|



MAKIN' LOVE 
P

[Rhy. Fig 1]
[Rhy. Fig 1 w/ Rhy. Fig 2]

[Rhy. Fig 4 w/ Rhy. Fig 5] (2x)
I just hate when the girl says wait
I really want her by my side
Don't hesitate
I really want her

[Rhy. Fig 8 w/ Rhy. Fig 9]
By my side, the whole night through
We do all the things that we wanna do
Well, come on baby, don't leave me sad
'Cause you're good lookin', the best I've had

[Rhy. Fig 11 w/ End 1 and Rhy. Fig 12 w/ End 1]
Makin' love (makin' love), makin' love (makin' love)
Makin' love (makin' love) all night long
[Rhy. Fig 11 w/ End 2 and Rhy. Fig 12 w/ End 2]
Makin' love (makin' love), makin' love (makin' love)
Makin' love (makin' love) all night

[Rhy. Fig 1 w/ Rhy. Fig 3]
Long.....Ow, all night long
[Rhy. Fig 1 w/ Rhy. Fig 2]

[Rhy. Fig 4 w/ Rhy. Fig 5] (2x)
Red light, green light, don't say "No"
I really want her, she says
"Stop, baby" go, go, go
I really want her 

[Rhy. Fig 8 w/ Rhy. Fig 10]
By my side, the whole night through
We do all the things that we wanna do
Well, come on baby, don't leave me sad
'Cause you're good lookin', the best I've had

[Rhy. Fig 11 w/ End 1 and Rhy. Fig 12 w/ End 1]
Makin' love (makin' love), makin' love (makin' love)
Makin' love (makin' love) all night long
[Rhy. Fig 11 w/ End 2 and Rhy. Fig 12 w/ End 2]
Makin' love (makin' love), makin' love (makin' love)
Makin' love (makin' love) all night

[Solo over Rhy. Fig 1 w/ Rhy. Fig 2 (3x)]
[Rhy. Fig 6 w/ Rhy. Fig 7]

Whoo
[Rhy. Fig 11 w/ End 1 and Rhy. Fig 12 w/ End 1] (3x)
Makin' love (makin' love), makin' love (makin' love)
Makin' love (makin' love) all night long
Makin' love (makin' love), makin' love (makin' love)
Makin' love (makin' love) all night long
Makin' love (makin' love), makin' love (makin' love)
Makin' love (makin' love) all night long
[Rhy. Fig 11 w/ End 2 and Rhy. Fig 12 w/ End 2]
Makin' love (makin' love), makin' love (makin' love)
Makin' love (makin' love) all night, oh

[Rhy. Fig 11 w/ End 1 and Rhy. Fig 12 w/ End 1] 
[Rhy. Fig 11 w/ End 2 and Rhy. Fig 12 w/ End 2]

(Drum Fill)

[Rhy. Fig 11 w/ End 1 and Rhy. Fig 12 w/ End 1]



Tap to rate this tab
 
# A B C D E F G H I J K L M N O P Q R S T U V W X Y Z