Song name
# A B C D E F G H I J K L M N O P Q R S T U V W X Y Z

Kiss - Live To Win tab

hey this is the live to win tab i was just mucking around along with the song i havent 
the whole thing just some parts. i will try get the rest if u need them email me at
stu121212@hotmail.co.uk

Standard tunning

Intro repeat for the pre-chorus part

|------------------------------------------------------------------------------|
|------------------------------------------------------------------------------|
|3---------6-------------------------------------------------------------------|
|3---------6--------3----------------------------------------------------------|
|1---------4--------3----------------------------------------------------------|
|-------------------1----------------------------------------------------------|

Then the chorus part
|-----------------------------------------------------------------------------------------|
|-----------------------------------------------------------------------------------------|
|6-6-6-6-6-6-6-6\8-8-8-8-8-8-8-8\10-10-10-10-10-10-10-10\12-12-12-12-12-12-12-12\13/12/10-|
|6-6-6-6-6-6-6-6\8-8-8-8-8-8-8-8\10-10-10-10-10-10-10-10\12-12-12-12-12-12-12-12\13/12/10-|
|4-4-4-4-4-4-4-4\6-6-6-6-6-6-6-6\8-8-8-8-8-8-8-8-8-8-8-8\10-10-10-10-10-10-10-10\11/10/8--|
|-----------------------------------------------------------------------------------------|

something like that guys
Tap to rate this tab
# A B C D E F G H I J K L M N O P Q R S T U V W X Y Z