Song name
# A B C D E F G H I J K L M N O P Q R S T U V W X Y Z

Kiss - Got To Choose tab

 ______________________________________________________________________
|                         KISS - Got to Choose                         |
|__________________________Tabbed by: Hobo Gt__________________________|

I'm sick and tired of seeing incomplete tabs, version 1, 2, 3 etc. and hard to hold 
 I put my foot down and I made the easiest tab to play so enjoy!

Intro:
E|-----------------|
B|-----------------|
G|-----------------|
D|--6-6------------|x4
A|--4-4---1-2--4-4-|
E|------4------2-2-|

Verse 1:
E|-----------------|
B|-----------------|
G|-----------------|
D|--6-6------------|x8
A|--4-4---1-2--4-4-|
E|------4------2-2-|

Refrain:
E|-------------|----------------|
B|-------------|----------------|
G|-------------|----------------|
D|-------------|----------------|
A|-7--9--9--11-|-77--99--99--11-|
E|-5--7--7--9--|-55--77--77--9--|

Verse 2:
E|-----------------|
B|-----------------|
G|-----------------|
D|--6-6------------|x8
A|--4-4---1-2--4-4-|
E|------4------2-2-|

Refrain:
E|-------------|----------------|
B|-------------|----------------|
G|-------------|----------------|
D|-------------|----------------|
A|-7--9--9--11-|-77--99--99--11-|
E|-5--7--7--9--|-55--77--77--9--|

Solo:
E|------------------------------------------------------|
B|------------------------------------------------------|
G|--9(B)-9R--9(BR)--9(BR)----9.B-9.-9.--9.--9.--9.R-----|
D|------------------------10-------------------------10-|
A|------------------------------------------------------|
E|------------------------------------------------------|

E|---------------------------10-------------------------------|
B|------------------------10----13--10------------------------|
G|--11(BR)-11(BR)------12(B)-----------12--10--12--12(BR)-10--|
D|----------------12~---------------------------------------12|
A|------------------------------------------------------------|
E|------------------------------------------------------------|

E|------------------------------------------------------|
B|---13(BR)--13(BR)~--13(BR)--13(BR)~--13(BR)--13(BR)~--|
G|------------------------------------------------------|
D|------------------------------------------------------|
A|------------------------------------------------------|
E|------------------------------------------------------|

E|--10--------------------------------------------------|
B|-----10-----------------------17(B)--17R-17(BR)-17(BR)|
G|--------12(BR)--10----10~-12--------------------------|
D|-------------------12---------------------------------|
A|------------------------------------------------------|
E|------------------------------------------------------|
            [   Hold bend   ]
E|------------------------------------------------------|
B|------17(B)-17.-17.-17.-17.-17R------19(BR)-19(BR)----|
G|--17~----------------------------17---------------19--|
D|------------------------------------------------------|
A|------------------------------------------------------|
E|------------------------------------------------------|

E|--15P-14P-12--15P-14P-12--15P-14P-12--15(B)--15(B)~---|
B|------------------------------------------------------|
G|------------------------------------------------------|
D|------------------------------------------------------|
A|------------------------------------------------------|
E|------------------------------------------------------|

E|--15(Pre-B)-15--15(B)-15--12~--15P-12-----------------|
B|--------------------------------------12H-15-12~------|
G|------------------------------------------------------|
D|------------------------------------------------------|
A|------------------------------------------------------|
E|------------------------------------------------------|

E|------------------------------------------------------|
B|------------------------------------------------------|
G|---14-12-14----12-------------------------------------|
D|------------14----14-12-14~---------------------------|
A|------------------------------------------------------|
E|------------------------------------------------------|

Outro:
E|-----------------|    |-------------------|--------------|
B|-----------------|    |-------------------|--------------|
G|-----------------|    |-------------------|--------------|
D|--6-6------------|x4  |-------------------|--------------|play this at
A|--4-4---1-2--4-4-|    |---1-2---1-2---1-2-|--77-77-77-9--|end of 4 outros.
E|------4------2-2-|    |-4-----4-----4-----|--55-55-55-7--|

Thanx 4 readin my tabs be sur to rate it! (*****plz)lol hppy playin'
Tap to rate this tab
# A B C D E F G H I J K L M N O P Q R S T U V W X Y Z