Song name
# A B C D E F G H I J K L M N O P Q R S T U V W X Y Z

Kiss - Ladies Room tab

This is the ladies room solo hope you like it. :)

Eb----------------------------9-----9---------------------------9-----9--|
Bb--------9-----9------------------------------9------9------------------|
Gb----------------------1/6~---6-6---6----------------------1/6---6-6--6-|
Db--1/6~----6-6---6-----------------------1/6~----6-6---6----------------|
Ab-----------------------------------------------------------------------|
Eb-----------------------------------------------------------------------|

Eb-----------------------------------------7/10/7--7--------10b-10b-|
Bb------8-----8--------12-----10------9-------------10/7/10---------|
Gb------------------------------------------------------------------|
Db--1/5--5-5---5---5/9---9--7----7--6---6---------------------------|
Ab------------------------------------------------------------------|
Eb------------------------------------------------------------------|

   If you have any questions or comments please tell me.  Have fun!
   KISS Rulez!!!!!!!!!!!!!!!!!!!!!!!!!!!!!!!!!!!!!!!!!!!!!!!!!!!!!!
Tap to rate this tab
# A B C D E F G H I J K L M N O P Q R S T U V W X Y Z