Guitaretab - guitar tabs
Song name
# A B C D E F G H I J K L M N O P Q R S T U V W X Y Z

Kiss - Rock & Roll All Night tab

From: robs@violet.berkeley.edu (Rob Schenk)
Subject: Tab:  Kiss "Rock N Roll All Nite

Rock N Roll All Nite

tune down 1/2 step

Intro

-10---10---------10-----------------------
-10---10---------10-----------------------
-10---10---------10-----------------------
-12---12---12---12---12---12---7-----
-10---10---12---10---12---12---7-----
-10---10---10---10---10---10---5-----

-------------------------------------------------
-------------------------------------------------
-----------------------------------------2------
----9---9---11---9---11---9---------2------
----7---7---7-----7----7----7---0----0-------
--------------------------------------------------


verses
---------------------------------------------
---------------------------------------------
------------------------------------2-------
--9---9---11--9---11---9-------2-------
--7---7---7----7---7----7---0---0-------
---------------------------------------------

----------------------------------------
----------------------------------------
-----------------------------------7----
---9---9---11---9---11--------7----
---7---7---7----7----7----0---5----
----------------------------------------


-10---10---------10---------------------
-10---10---------10---------------------
-10---10---------10---------------------
-12---12---12---12---12---12---7---
-10---10---12---10---12---12---7---
-10---10---10---10---10---10---5---

right before chorus

-10---10---------10-------------------
-10---10---------10-------------------
-10---10---------10-------------------
-12---12---12---12---12---12------
-10---10---12---10---12---12------
-10---10---10---10---10---10-----

---------------------------------------------
---------------------------------------------
-10--10---10--10---10----10----10---
-10--10---10--10---10----10----10---
-8----8----8----8-----8-----8-----8----
---------------------------------------------

----------------------------------------
----------------------------------------
-12---12---12---12---12---12----
-12---12---12---12---12---12----slide
--10---10---10---10---10---10----
----------------------------------------


chorus
--------------------------------------------
--------------------------------------------
--2----------------------------------------
--2--------------7---7---9---7---9---7-
--0--------------5---5---5---5---5---5-
--------------------------------------------

-----------------------------------------
-----------------------------------------
------------------------------------------
-------9---9---11--9---11--9--------2 times
--0---7---7---7----7---7----7--------
-----------------------------------------

--------------
--------------
--2----------
--2----------
--0----------
--------------
[ Tab from: http://www.guitaretab.com/k/kiss/9875.html ]
Related for Rock & Roll All Night tab
Advertisement will be closed in 10 seconds