Guitaretab - guitar tabs
Song name
# A B C D E F G H I J K L M N O P Q R S T U V W X Y Z

Kiss - Strutter tab

e------------------------------------------------------------------|
B------------------------------------------------------------------|
G------------------------------------------------------------------|
D-----------------6-6-6----------------------------6-6-6-4-4-4-4-4-|
A-8-8-8-4-4-4-4-4-4-4-4-6-6-6-6-6--8-8-8-4-4-4-4-4-4-4-4-4-4-4-4-4-|
E-6-6-6-2-2-2-2-2-------4-4-4-4-4--6-6-6-2-2-2-2-2-----------------|
                         Intro

e--------------------------------------------------------|
B--------------------------------------------------------|
G--------------------------------------------------------|
D-----------------6-6-6-4-4-4-4-4------------------------|
A-8-8-8-4-4-4-4-4-4-4-4-4-4-4-4-4------------------------|
E-6-6-6-2-2-2-2-2----------------------------------------|
  I know a thing or two about her.

e--------------------------------------------------------|
B--------------------------------------------------------|
G--------------------------------------------------------|
D-----------------6-6-6----------------------------------|
A-8-8-8-4-4-4-4-4-4-4-4-6-6-6-6-6------------------------|
E-6-6-6-2-2-2-2-2-------4-4-4-4-4------------------------|
 I know she'll only make you cry.
[ Tab from: http://www.guitaretab.com/k/kiss/9883.html ]
e--------------------------------------------------------|
B--------------------------------------------------------|
G--------------------------------------------------------|
D-----------------6-6-6-4-4-4-4-4------------------------|
A-8-8-8-4-4-4-4-4-4-4-4-4-4-4-4-4------------------------|
E-6-6-6-2-2-2-2-2----------------------------------------|
 She'll let you walk the street beside her.

e--------------------------------------------------------|
B--------------------------------------------------------|
G--------------------------------------------------------|
D-----------------6-6-6----------------------------------|
A-8-8-8-4-4-4-4-4-4-4-4-6-6-6-6-6------------------------|
E-6-6-6-2-2-2-2-2-------4-4-4-4-4------------------------|
 But when she wants she'll pass you by.

e---------------------|
B---------------------|
G---------------------|
D---------------------|
A-8-8-4-4-8-8-4-4-----|
E-6-6-2-2-6-6-2-2-----|
Everybody says she's lookin good and the lady knows it's understood.

e--------------------------|
B--------------------------| CHORUS:
G--------------------------|
D---------------------6-8-8-6---6---|
A-6-8-8-6-8-8-6-8-8-8-4-6-6-4-4-4-4-|
E-4-6-6-4-6-6-4-6-6-6---------6---6-| play this segment two times.
 Strutter!


CHORUS:
Verse 2: same thing but play three times


solo

Last verse: do the same thing as the the first two verses.
 Last Verse CHORUS: Play verse two chorus.

verse 2 lyrics:
She wears her satins like a lady.
She gets her way just like a child.
You take her home and she says " Maybe, Baby."
She takes you down and drive you wild.

       If you have any comments plaease tell me.
       I hope you enjoy playing it.
Related for Strutter tab
Advertisement will be closed in 10 seconds