Song name
# A B C D E F G H I J K L M N O P Q R S T U V W X Y Z

Kiss - Sure Know Something tab

Help us improve GuitareTab! Take a short survey!
| /  slide up
| \  slide down
| h  hammer-on
| p  pull-off
| ~  vibrato
| +  harmonic
| x  Mute note
| xx Pick Scrape
===============================================================================

-------------------------------------------------------------------------------
			     Sure Know Something Solo - KISS
-------------------------------------------------------------------------------
Tabbed by: Jeremy Tormala
Email: jatorms@hotmail.com

Tuning: half step down

e|---------------------------------------------------|
B|---------------------------------------------------|
G|----7-------------------7-9-9p7-9---9b---9bp7 9b~--|
D|-----7--------5--7/9-------------------------------|
A|---------5h7---------------------------------------|
E|---------------------------------------------------|

e|-------------12----12--12--10--------------12h15p12--12------|
B|--------------------------------------12h15--------15--15b~--|
G|--12--14b------14----14--14--8~------------------------------|
D|-------------------------------------------------------------|
A|-------------------------------------------------------------|
E|-------------------------------------------------------------|

e|--------17b 17b~---------------------------------------------------------------------|
B|-17bp15------------------------------------------------------------------------------|
G|-------------------------------------------------------------------------------------|
D|-------------------------------------------------------------------------------------|
A|-------------------------------------------------------------------------------------|
E|------------------------xx-----------------------------------------------------------|
Related for Sure Know Something tab