Guitaretab - guitar tabs
Song name
# A B C D E F G H I J K L M N O P Q R S T U V W X Y Z
Home / K / Kiss / Unholy tab

Kiss - Unholy tab

Unholy- kiss
Album: Revenge
Tabbed by: anonymous
Amp mode: clean overdrive
Tuning: 1 step down
Difficulty: Advanced

Intro:
|---------------------------------------------------------------------------|
|---------------------------------------------------------------------------|
|-------------------Speed up slowly-----------------------------------------|
|-2h3--2h3--2h3-2-3-2-3-2-3-2-3-2-3-2-3----4/5--5--4/5--5-----3-2~~~--2-3---|
|----------------gtr.two________________x-----------------x--1-1---------1--|
|-0h1--0h1--0h1-0-1-0-1-0-1-0-1-0-1-0-1----2/3--3--2/3--3-------------------|
Verse:
|------------------------------------------------------------|
|------------------------------------------------------------|
|------------------------------------------------------------|
|-4/5-5--4/5-5------3-2~~~--2-3------3-2~~~--2-3-------------|
|------------------1-1---------1------1-1---------1----------|
|-2/3-3--2/3-3-----------------------------------------------|

|------------------------------------------------------------|
|------------------------------------------------------------|
|-----------------5-5----------------------------------------|
|-4/5-5--4/5-5-3-3--2-let ring-------------------------------|
|----------------------0-let ring----------------------------|
|-2/3-3--2/3-3-----------------------------------------------|

|------------------------------------------------------------|
|------------------------------------------------------------|
|------------------------------------------------------------|
|-4/5-5--4/5-5------3-2~~~--2-3------3-2~~~--2-3-------------|
|------------------1-1---------1------1-1---------1----------|
|-2/3-3--2/3-3-----------------------------------------------|

|------------------------------------------------------------|
|------------------------------------------------------------|
|-----------------5-5----------------------------------------|
|-4/5-5--4/5-5------2----2-2-2-2-2-2-------------------------|
|-----------------3-3-0----0-0-0-0-0-0-----------------------|
|-2/3-3--2/3-3-----------------------------------------------|



Chorus:
|-----------------------------------------------------|
|-----------------------------------------------------|
|-----------------------------------------------------|
|-7-7-5-7-5-7-7-5-7-0-7-7-5-7-5-7-7-5-7-0-------------|
|-7-5-3-7-3-7-5-3-7-0-7-5-3-7-3-7-5-3-7-0-------------|
|-5------5---5------5----5------5---5-------5---------|
    UNHOLY!
|-----------------------------------------------------|
|-----------------------------------------------------|
|-----------------------------------------------------|
|-7-7-5-7-5-7-7-5-7-0-7-7-5-7-5-7-7-5-7-3-------------|
|-7-5-3-7-3-7-5-3-7-0-7-5-3-7-3-7-5-3-7-3-------------|
|-5------5---5------5----5------5---5-------5-1-------|
    UNHOLY!
Verse:
|------------------------------------------------------------|
|------------------------------------------------------------|
|------------------------------------------------------------|
|-4/5-5--4/5-5------3-2~~~--2-3------3-2~~~--2-3-------------|
|------------------1-1---------1------1-1---------1----------|
|-2/3-3--2/3-3-----------------------------------------------|

|------------------------------------------------------------|
|------------------------------------------------------------|
|-----------------5-5----------------------------------------|
|-4/5-5--4/5-5------2-let ring-------------------------------|
|-----------------3-3-0-let ring-----------------------------|
|-2/3-3--2/3-3-----------------------------------------------|

|------------------------------------------------------------|
|------------------------------------------------------------|
|------------------------------------------------------------|
|-4/5-5--4/5-5------3-2~~~--2-3------3-2~~~--2-3-------------|
|------------------1-1---------1------1-1---------1----------|
|-2/3-3--2/3-3-----------------------------------------------|

|------------------------------------------------------------|
|------------------------------------------------------------|
|-----------------5-5----------------------------------------|
|-4/5-5--4/5-5------2----2-2-2-2-2-2-------------------------|
|-----------------3-3-0----0-0-0-0-0-0-----------------------|
|-2/3-3--2/3-3-----------------------------------------------|
[ Tab from: http://www.guitaretab.com/k/kiss/9887.html ]
Chorus:
|-----------------------------------------------------|
|-----------------------------------------------------|
|-----------------------------------------------------|
|-7-7-5-7-5-7-7-5-7-0-7-7-5-7-5-7-7-5-7-0-------------|
|-7-5-3-7-3-7-5-3-7-0-7-5-3-7-3-7-5-3-7-0-------------|
|-5------5---5------5----5------5---5-------5---------|
    UNHOLY!
|---------------------------------------------------------------|
|---------------------------------------------------------------|
|---------------------------------------------------------------|
|-7-7-5-7-5-7-7-5-7-0-7-7-5-7-5-7-7-5-7---3-2-1-----------------|
|-7-5-3-7-3-7-5-3-7-0-7-5-3-7-3-7-5-3-7-3-5-4-3-3---------------|
|-5------5---5------5----5------5---5-------5-1--------1--------|
    UNHOLY!
|---------------------------------------------------------------------------|
|---------------------------------------------------------------------------|
|---------------------------------------------------------------------------|
|-7-7-5-7-5-7-7-5-7-0-7-7-5-7-5-7-7-5-7-0---3-2-1----3-2-1------------------|
|-7-5-3-7-3-7-5-3-7-0-7-5-3-7-3-7-5-3-7-0-3-5-4-3-3-5-4-3-3-----------------|
|-5------5---5------5----5------5---5-------5--1----------1--------1--------|
   UNHOLY!                                  (unholy)
|-----------------------------------------------------|
|-----------------------------------------------------|
|-----------------------------------------------------|
|---7-5---------7-5--- 5---7-5-------- 7-5------------|
|-0-5-3-0-5-0-5-3-0-3-0-5-3-0-5-0-5-3-0-5-------------|
|-0------0-3-0------0--- 0------0-3-0------0-3--------|
Solo: I havenít figured out the solo yet, but here is a list of references where you may find it:
www.ultimate-guitar.com
www.thetabworld.com
www.guitaretab.com
www.google.com

Verse:
|------------------------------------------------------------|
|------------------------------------------------------------|
|------------------------------------------------------------|
|-4/5-5--4/5-5------3-2~~~--2-3------3-2~~~--2-3-------------|
|------------------1-1---------1------1-1---------1----------|
|-2/3-3--2/3-3-----------------------------------------------|

|------------------------------------------------------------|
|------------------------------------------------------------|
|-----------------5-5----------------------------------------|
|-4/5-5--4/5-5------2-let ring-------------------------------|
|-----------------3-3-0-let ring-----------------------------|
|-2/3-3--2/3-3-----------------------------------------------|

|------------------------------------------------------------|
|------------------------------------------------------------|
|------------------------------------------------------------|
|-4/5-5--4/5-5------3-2~~~--2-3------3-2~~~--2-3-------------|
|------------------1-1---------1------1-1---------1----------|
|-2/3-3--2/3-3-----------------------------------------------|

|------------------------------------------------------------|
|------------------------------------------------------------|
|-----------------5-5----------------------------------------|
|-4/5-5--4/5-5------2----2-2-2-2-2-2-------------------------|
|-----------------3-3-0----0-0-0-0-0-0-----------------------|
|-2/3-3--2/3-3-----------------------------------------------|

|--------------------------------------|
|--------------------------------------|
|--------------------------------------|
|-7-------------7-7---7-7---7-7--------|
|-0-------------0-0---0-0---0-0--------|
|-5-------------5-5---5-5---5-5--------|
    UNHOLY!                   Created by man
|------------------------------------------------------|
|------------------------------------------------------|
|--------------------------------------5--4--5--4------|
|-7-------------7-7---7-7---7-7---3--3--3--3-----------|
|-0-------------0-0---0-0---0-0-----3--2--3--2---------|
|-5-------------5-5---5-5---5-5---1--1--1--1-----------|
    UNHOLY!
|---------------------------------------------------------------------------|
|---------------------------------------------------------------------------|
|---------------------------------------------------------------------------|
|-7-7-5-7-5-7-7-5-7-0-7-7-5-7-5-7-7-5-7-0---3-2-1----3-2-1------------------|
|-7-5-3-7-3-7-5-3-7-0-7-5-3-7-3-7-5-3-7-0-3-5-4-3-3-5-4-3-3-----------------|
|-5------5---5------5----5------5---5-------5--1----------1--------1--------|
   UNHOLY!                                  (unholy)
|------------------------------------------------------------|
|------------------------------------------------------------|
|------------------------------------------------------------|
|---7-5---------7-5--- 5---7-5-------- 7-5------5/0----------|
|-0-5-3-0-5-0-5-3-0-3-0-5-3-0-5-0-5-3-0-5--------------------|
|-0------0-3-0------0--- 0------0-3-0------0-3-3/0-----------|
Related for Unholy tab