Song name
# A B C D E F G H I J K L M N O P Q R S T U V W X Y Z

Kisschasy - Doomsday tab

Intro
E|---------------------------|
B|---------------------------|
G|--1-1-1-2-2-2-------2-2-2--|
D|--2-2-2-2-2-2-4-4-4-2-2-2--|
A|--2-2-2-0-0-0-4-4-4-0-0-0--|
E|--------------2-2-2--------|
"into the sun"
E|---0----0-----0-|
B|--0-0--0-0---0--|
G|----------------|
D|-2----------0---|
A|------2---------|
E|-----------2----|
Tap to rate this tab
# A B C D E F G H I J K L M N O P Q R S T U V W X Y Z