Song name
# A B C D E F G H I J K L M N O P Q R S T U V W X Y Z

Kisschasy - To Death tab

-------------------------------------------------------------------------------
			     TO DEATH - Kisschasy
-------------------------------------------------------------------------------
Tabbed by: minieme007
Email: goodcharlottefan96@hotmail.com

Tuning: Half-step Down

Main Riff (Intro/verses)
e|--------------------|
B|--------------------|
G|--------------------|
D|2---444-5-5--5--2---|
A|2---444-5-5--5--2---|
E|0---222-3-3--3--0---|

Chorus
e|---------------------------------------------------------------------|
B|---------------------------------------------------------------------|
G|---------------------------------------------------------------------|
D|5-5-5-5-5-5-5-5------------------------------------------------------|
A|7-7-7-7-7-7-7-7-7-7-7-7-7-7-7-7-5-5-5-5-5-5-5-5-7-7-7-7-7-7-7-7------|
E|----------------5-5-5-5-5-5-5-5-3-3-3-3-3-3-3-3-5-5-5-5-5-5-5-5------|

Sorry this is all I could figure out but this is my first tab. Hope it helps!


| /  slide up
| \  slide down
| h  hammer-on
| p  pull-off
| ~  vibrato
| +  harmonic
| x  Mute note
===============================================================================
Tap to rate this tab
# A B C D E F G H I J K L M N O P Q R S T U V W X Y Z