Song name
# A B C D E F G H I J K L M N O P Q R S T U V W X Y Z

Kisschasy - We All Need To Be Alone tab

This is a song from kisschasy's new album Seizures.


e-----------------------------------------|
b-----------------------------------------|
g-----------------------------------------|
d-----------------------------------------|  (Play This LOTS)
a---4444444---66666666--------------------|
E-----------2-----------------------------|

(this is the lead part played throughout the song)

e--------------------------------|
b--------------------------------|
g---10101010101010-6/-88888888---|
d--------------------------------|
a--------------------------------|
E--------------------------------|


e-----------------------------------------|
b-----------------------------------------|
g---6666666----88888888-------------------|
d---6666666-4--88888888-------------------|
a---4444444-4--66666666-------------------|
E-----------2-----------------------------|

easy song , hope this helps a few people out.

any comments or questions email me at: mattg_rules@hotmail.com

 ENJOY :) .
Tap to rate this tab
# A B C D E F G H I J K L M N O P Q R S T U V W X Y Z