Song name
# A B C D E F G H I J K L M N O P Q R S T U V W X Y Z

Kisschasy - Generation Why tab

Kisschasy - Generation Why
Album: Seizures
Tabbed by Grady

Legend:
b - bend
^ - bend up
v - bring bend down
p - pull off note
h - Hamerr on note
/ - slide

Intro Riff x4

Guitar 1:

|-0-0-0-0-----|
|-3-5-3-5b^v--|
|-------------|
|-------------| 
|-------------|
|-------------|

Guitar 2:

|-0-0-0-0--0--0--0-/-|
|-3-3-3/8--8--8--8-/-|
|-5-5-5/10-10-10-10/-|
|-4-4-4/9--9--9--9-/-|
|-5-5-5/10-10-10-10/-|
|--------------------|

Verse x2

Guitar 1:

|-0-0-0-0-----|    |-0-0-0/0--0--0--| 
|-3-5-3-5b^v--|    |-8-8-8/10-10-10-| 
|-------------|    |----------------| 
|-------------| x3 |----------------| 
|-------------|    |----------------| 
|-------------|    |----------------| 

Guitar 2:

|-0-0-0-0--0--0--0-/-|    |-------------|
|-3-3-3/8--8--8--8-/-|    |-------------|
|-5-5-5/10-10-10-10/-|    |-------------|
|-4-4-4/9--9--9--9-/-| x3 |-3-3-3-7-7-7-|
|-5-5-5/10-10-10-10/-|    |-3-3-3-7-7-7-|
|--------------------|    |-1-1-1-5-5-5-|

Chorus

Guitar 1 & 2:

|-----0-0-0-0-0-0-0-0-|
|-----3-3-3-3-3-3-3-3-|
|-----5-5-5-5-5-5-5-5-|
|-----4-4-4-4-4-4-4-4-| x4
|-2-4-5-5-5-5-5-5-5-5-|
|-3-5-----------------|

Post Chorus:

Guitar 1:

|----------------|---------------|-------------|---------------|
|-13-12-10-------|---------------|-------------|---------------|
|----------10b^v-|-13-12-10------|-10p7--------|--------10-7---|
|----------------|----------9b^v-|------9------|------9---(12)-|
|----------------|---------------|--------7b^v-|-8-10----------|
|----------------|---------------|-------------|---------------|

Guitar 2:

|-0-0-0-0--0--0--0-/-|
|-3-3-3/8--8--8--8-/-|
|-5-5-5/10-10-10-10/-|
|-4-4-4/9--9--9--9-/-| x4 
|-5-5-5/10-10-10-10/-|
|--------------------|

And thats pretty much it any corrections e-mail it to me at stiggy.twiggy@hotmail.com
:]
Tap to rate this tab
 
# A B C D E F G H I J K L M N O P Q R S T U V W X Y Z