Song name
# A B C D E F G H I J K L M N O P Q R S T U V W X Y Z

Kisschasy - Turnaround tab

hey this is only my second tab so be nice but i'm pretty sure it's alright
It's only the verse, chorus and end bit thought

Verse
------------------------------------------------------------------------|
------------------------------------------------------------------------|
-------5-5-5-5-5-------7-7-7-7-7-------7-7-7-7-7-1-1-1------------------|
-3-3-3-5-5-5-5-5-8-8-8-7-7-7-7-7-8-8-8-7-7-7-7-7-1-1-1-3-3-3-3----------|
-3-3-3-3-3-3-3-3-8-8-8-5-5-5-5-5-8-8-8-5-5-5-5-5-3-3-3-3-3-3-3----------|
-1-1-1-----------6-6-6-----------6-6-6-----------------1-1-1-1----------|

Chorus
------------------------------------------------------------------------|
------------------------------------------------------------------------|
-3-3-3-3-5-5-5-5---------7-7-7-7---------5-5-5-5------------------------|
-3-3-3-3-5-5-5-5-3-3-3-3-7-7-7-7-8-8-8-8-5-5-5-5-3-3-3-3----------------|
-1-1-1-1-3-3-3-3-3-3-3-3-5-5-5-5-8-8-8-8-3-3-3-3-3-3-3-3----------------|
-----------------1-1-1-1---------6-6-6-6---------1-1-1-1----------------|

Where he says sing it again and one more time at the end it's

------------------------------------------------------------------------|
------------------------------------------------------------------------|
-3-3-3-3-5-5-5-5--------------------------------------------------------|
-3-3-3-3-5-5-5-5-3-3-3-3------------------------------------------------|
-1-1-1-1-3-3-3-3-3-3-3-3------------------------------------------------|
-----------------1-1-1-1------------------------------------------------|

Then at the very end it's just a high F power chord
Tap to rate this tab
 
# A B C D E F G H I J K L M N O P Q R S T U V W X Y Z