Song name
# A B C D E F G H I J K L M N O P Q R S T U V W X Y Z

Kisschasy - Turnaround tab

This is the second guitar or solo part
Why doesn't anybody make a tab of this song
First tab ever, not perfect

This is at the start
--------------------------------------------------------------------------|
---10-10-9--9--10-10-9--9--10-10-9--9--10-10-9--9-------------------------|
---14-14-13-13-14-14-13-13-14-14-13-13-14-14-13-13------------------------|
--------------------------------------------------------------------------|
--------------------------------------------------------------------------|
--------------------------------------------------------------------------|

--------------------------------------------------------------------------|
---10-10-9--9--10-10-9--9--10-10-9--9--10-10-10-10------------------------|
---14-14-13-13-14-14-13-13-14-14-13-13-14-14-14-14------------------------|
--------------------------------------------------------------------------|
--------------------------------------------------------------------------|
--------------------------------------------------------------------------|

Then this through most of song
--------------------------------------------------------------------------|
---10-10-9--9--10-10-9--9--10-10-9--9--10-10-9--9-------------------------|
---14-14-13-13-14-14-13-13-14-14-13-13-14-14-13-13------------------------|
--------------------------------------------------------------------------|
--------------------------------------------------------------------------|
--------------------------------------------------------------------------|

--------------------------------------------------------------------------|
---10-10-9--9--10-10-9--9--6--6--6--6--5--5--5--5-------------------------|
---14-14-13-13-14-14-13-13-10-10-10-10-9--9--9--9-------------------------|
--------------------------------------------------------------------------|
--------------------------------------------------------------------------|
--------------------------------------------------------------------------|

This is the solo type part
--------------------------------------------------------------------------|
---------------------------10b--8--10-10-10-10-10-10b--8--10-10-10-10-10--|
---10-10-10-9--9--9--12-12------------------------------------------------|
--------------------------------------------------------------------------|
--------------------------------------------------------------------------|
--------------------------------------------------------------------------|

---12-12-12-8--8--8--8--8-------------------------------------------------|
--------------------------------------------------------------------------|
--------------------------------------------------------------------------|
--------------------------------------------------------------------------|
--------------------------------------------------------------------------|
--------------------------------------------------------------------------|


b = bend

Send suggestions to bigtoe@live.com.au
Tap to rate this tab
 
# A B C D E F G H I J K L M N O P Q R S T U V W X Y Z