Song name
# A B C D E F G H I J K L M N O P Q R S T U V W X Y Z

Kisschasy - Perfect Way To Meet tab

-------------------------------------------------------------------------------
			    The Perfect Way to Meet (solo) - Kisschasy
-------------------------------------------------------------------------------
Tabbed by: Stacey	
Email: s_quine@hotmail.com

Tuning: Standard

I looked up the solo on Ultimate-Guitar, but it wasn't here, so I figured it out.
My first tab, please give me feedback/advice:)

e|6----4---------------------------------------------------------------------|
B|-------6--7--6--4--6--4--2--1--2--1--1-------------------------------------|
G|---------------------------------------3--3/-1~----------------------------|
D|---------------------------------------------------------------------------|
A|---------------------------------------------------------------------------|
E|---------------------------------------------------------------------------|

e|---------------16----------18----------16----------18----------------------|
B|-/18--18--18-18----18-16-18----18-16-18----18-16-18----18-16-18------------|
G|---------------------------------------------------------------------------|
D|---------------------------------------------------------------------------|
A|---------------------------------------------------------------------------|
E|---------------------------------------------------------------------------|

e|---------------16----------18----------16----------18----------------------|
B|-18--18--18-18----18-16-18----18-16-18----18-16-18----18-16-18-------------|
G|---------------------------------------------------------------------------|
D|---------------------------------------------------------------------------|
A|---------------------------------------------------------------------------|
E|---------------------------------------------------------------------------|

e|---------------16----------18----------16----------18----------------------|
B|-18--18--18-18----18-16-18----18-16-18----18-16-18----18-16-18-------------|
G|---------------------------------------------------------------------------|
D|---------------------------------------------------------------------------|
A|---------------------------------------------------------------------------|
E|---------------------------------------------------------------------------|

e|---------------16----------18----------16----------18----------18~---------|
B|-18--18--18-18----18-16-18----18-16-18----18-16-18----18-16-18-------------|
G|---------------------------------------------------------------------------|
D|---------------------------------------------------------------------------|
A|---------------------------------------------------------------------------|
E|---------------------------------------------------------------------------|



************************************

| /   slide up
| \   slide down
| h   hammer-on
| p   pull-off
| ~   vibrato
| +   harmonic
| x   Mute note
| b   Bend
| pb  Pre-bend
| br  Bend release
| pbr Pre-bend release
| brb Bend release bend

************************************
Tap to rate this tab
 
# A B C D E F G H I J K L M N O P Q R S T U V W X Y Z