Song name
# A B C D E F G H I J K L M N O P Q R S T U V W X Y Z

Kisschasy - Dinosaur tab

Title: Dinosaur
Artist: Kisschasy
Album: Seizures

Tabbed by Hazel (lezahtherock). Email: latetoo00@hotmail.com

Tuning: Half-Step Down.

Listen to figure out the strumming pattern please!
Lyrics DO NOT correspond to the timing in the verses.

Verse 1:

I'm trying to beat my misery
Don't want to go across the sea
eb|-----------0-0-0-0-|
Bb|-----------1-1-1-1-|
Gb|-----------0-0-0-0-|
Db|-----------2-2-3-2-| x2 
Ab|---0-3-0-3-3-3-3-3-|
Eb|-3-----------------|

And if I could take you everywhere
eb|---0---0---0-0-0-0-|
Bb|-----------1-1-1-1-|
Gb|-4---2-----0-0-0-0-|
Db|-----------2-2-3-2-|
Ab|---------3-3-3-3-3-|
Eb|-------------------|

There'd be no cause for my despair
eb|-----------0-0-0-0-|
Bb|-----------1-1-1-1-|
Gb|-----------0-0-0-0-|
Db|-----------2-2-3-2-| 
Ab|---0-3-0-3-3-3-3-3-|
Eb|-3-----------------|

Chorus:
      Am            F         C
And I know we won't touch for months
         Am         F         C
And your smell will evade me
        Am            F       C
But our love could survive a war

   Am F C
eb|-0-1-0-|
Bb|-1-1-1-|
Gb|-2-2-0-|
Db|-2-3-2-| x3
Ab|-0-3-3-|
Eb|-0-1---|


Without the slightest sore
eb|-0-0-0-|
Bb|-1-1-1-|
Gb|-2-2-2-|
Db|-0-0-3-|
Ab|-3-2-0-|
Eb|-------|

Verse 2:

I know you suffer for my art
eb|-0-0-0-0-|
Bb|-1-1-1-1-|
Gb|-0-0-0-0-|
Db|-2-2-3-2-| 
Ab|-3-3-3-3-|
Eb|---------|

Always pulling us apart
eb|-----------0-0-0-0-|
Bb|-----------1-1-1-1-|
Gb|-----------0-0-0-0-|
Db|-----------2-2-3-2-|
Ab|---0-3-0-3-3-3-3-3-|
Eb|-3-----------------|

You're forever in my brain
eb|---0---0---0-0-0-0-|
Bb|-----------1-1-1-1-|
Gb|-4---2-----0-0-0-0-|
Db|-----------2-2-3-2-|
Ab|---------3-3-3-3-3-|
Eb|-------------------|

Even when I cause you pain
eb|-----------0-0-0-0-|
Bb|-----------1-1-1-1-|
Gb|-----------0-0-0-0-|
Db|-----------2-2-3-2-| 
Ab|---0-3-0-3-3-3-3-3-|
Eb|-3-----------------|

Chorus:
      Am           F          C
And I know I can't taste your skin
         Am     F         C
With an ocean between us
        Am        F        C
But our love is a dinosaur

   Am F C
eb|-0-1-0-|
Bb|-1-1-1-|
Gb|-2-2-0-|
Db|-2-3-2-| x3
Ab|-0-3-3-|
Eb|-0-1---|


Hear it roar
eb|-0-0-0-|
Bb|-1-1-1-|
Gb|-2-2-2-|
Db|-0-0-3-|
Ab|-3-2-0-|
Eb|-------|

Bridge:

Guitar one

eb|-0-0-0-0-|
Bb|-1-1-1-1-|
Gb|-0-0-0-0-|  x2
Db|-2-2-3-2-| 
Ab|-3-3-3-3-|
Eb|---------|

eb|-0-1-0-|
Bb|-1-1-1-|
Gb|-2-2-0-|
Db|-2-3-2-| x3
Ab|-0-3-3-|
Eb|-0-1---|

eb|-0-0-0-|
Bb|-1-1-1-|
Gb|-2-2-2-|
Db|-0-0-3-|
Ab|-3-2-0-|
Eb|-------|

Guitar two

eb|-8--8----8--8---|
Bb|---8-8-----8-8--|
Gb|----------------| x2
Db|----------------| 
Ab|----------------|
Eb|----------------|


eb|-5--5----5--5---|
Bb|---8-8-----8-8--|
Gb|----------------| x3
Db|----------------| 
Ab|----------------|
Eb|----------------|


eb|-5--5----5--5----5--5----5--5--|
Bb|---8-8-----7-7-----5-5-----5-5-|
Gb|-------------------------------|
Db|-------------------------------|
Ab|-------------------------------|
Eb|-------------------------------|

Chorus:

Guitar one
      Am            F         C
And I know we won't touch for months
         Am         F         C
And your smell will evade me
        Am            F       C
But our love could survive a war

   Am F C
eb|-0-1-0-|
Bb|-1-1-1-|
Gb|-2-2-0-|
Db|-2-3-2-| x3
Ab|-0-3-3-|
Eb|-0-1---|


Without the slightest sore
eb|-0-0-0-|
Bb|-1-1-1-|
Gb|-2-2-2-|
Db|-0-0-3-|
Ab|-3-2-0-|
Eb|-------|

Guitar two
eb|-5--5----5--5---|
Bb|---8-8-----8-8--|
Gb|----------------| x3
Db|----------------| 
Ab|----------------|
Eb|----------------|


eb|-5--5----5--5----5--5----5--5--|
Bb|---8-8-----7-7-----5-5-----5-5-|
Gb|-------------------------------|
Db|-------------------------------|
Ab|-------------------------------|
Eb|-------------------------------|


Guitar one

      Am           F          C
And I know I can't taste your skin
         Am     F         C
With an ocean between us
        Am        F        C
But our love is a dinosaur

   Am F C
eb|-0-1-0-|
Bb|-1-1-1-|
Gb|-2-2-0-|
Db|-2-3-2-| x3
Ab|-0-3-3-|
Eb|-0-1---|


Hear it roar
eb|-0-0-0-|
Bb|-1-1-1-|
Gb|-2-2-2-|
Db|-0-0-3-|
Ab|-3-2-0-|
Eb|-------|

Guitar two

eb|-5--5----5--5---|
Bb|---8-8-----8-8--|
Gb|----------------| x3
Db|----------------| 
Ab|----------------|
Eb|----------------|


eb|-5--5----5--5----5--5----5--5--|
Bb|---8-8-----7-7-----5-5-----5-5-|
Gb|-------------------------------|
Db|-------------------------------|
Ab|-------------------------------|
Eb|-------------------------------|

Guitar one

Hear it roar
eb|-0-0-0-|
Bb|-1-1-1-|
Gb|-2-2-2-|
Db|-0-0-3-|
Ab|-3-2-0-|
Eb|-------|

Guitar two

eb|-5--5----5--5----5--5----5--5--|
Bb|---8-8-----7-7-----5-5-----5-5-|
Gb|-------------------------------|
Db|-------------------------------|
Ab|-------------------------------|
Eb|-------------------------------|

Guitar one ends on the C chord.

/   slide up
\   slide down
h   hammer-on
p   pull-off
~   vibrato
+   harmonic
x   Mute note
b   bend
r   release
Tap to rate this tab
# A B C D E F G H I J K L M N O P Q R S T U V W X Y Z