Song name
# A B C D E F G H I J K L M N O P Q R S T U V W X Y Z

Kisschasy - Black Dress tab

hey a couple of people have tabbed this song and i thought i would try,
i watched alot of live videos closley to get a better grip
of what he actualy plays though i found out that he playes it with the guitar a full 
down alot live but anywho,
i hope this sounds as close to the original as possible :)
this is my first tab by the way :)
Standard tuning

(intro)
E|-----0-------0-------0-------0---|
B|-----0-------0-------0-------0---|
G|-----8-------8-------8-------8---|
D|-----9-------9-------9-------9---|
A|-6-6-6-6-6-6-6-7-7-7-7-7-7-7-7-7-| X2
E|-x-x-x-7-7-7-7-0-0-0-0-0-0-0-0-0-|

I dug you up this morning and took you home...

E|-----0-------0-------0-------0---|
B|-----0-------0-------0-------0---|
G|-----8-------8-------8-------8---|
D|-----9-------9-------9-------9---|
A|-6-6-6-6-6-6-6-7-7-7-7-7-7-7-7-7-| X2
E|-x-x-x-7-7-7-7-0-0-0-0-0-0-0-0-0-|

i made my mind

E|--x-x-x-x-x-x-x---2-2-2-2-2-2-2----------------|
B|--4-4-4-4-4-4-4---4-4-4-4-4-4-4----------------|
G|--4-4-4-4-4-4-4---4-4-4-4-4-4-4----------------|
D|--3-3-3-3-3-3-3---2-2-2-2-2-2-2----------------|
A|--4-4-4-4-4-4-4---2-2-2-2-2-2-2----------------|
E|--x-x-x-x-x-x-x---x-x-x-x-x-x-x----------------|

Up last night.
---2-2-2-2-2-2-2---x--x-x-x-x-x-------|
---4-4-4-4-4-4-4---4--4-4-4-4-4-------|
---4-4-4-4-4-4-4---4--4-4-4-4-4-------|
---4-4-4-4-4-4-4---3--3-3-3-3-3-------|
---2-2-2-2-2-2-2---4--4-4-4-4-4-------|
---x-x-x-x-x-x-x---x--x-x-x-x-x-------|

that heaven just cant...

E|--x--x--x--x------|
B|--x--x--x--x------|
G|--4--4--4--3------|
D|--2--2--2--4------|
A|--2--4--2--4------| X1
E|--0--2--4--2------|

have you.

E|-----2-------0-------2-------0-------2-------0---|
B|-------4-------4-------4-------4-------4-------4-|
G|---4-------4-------4-------4-------4-------4-----|
D|-------------------------------------------------|
A|-------------------------------------------------| X1
E|-0-------2-------4-------2-------0---------------|

Verse 2

I cooked you breakfast but you would not eat....

E|-----0-------0-------0-------0---|
B|-----0-------0-------0-------0---|
G|-----8-------8-------8-------8---|
D|-----9-------9-------9-------9---|
A|-6-6-6-6-6-6-6-7-7-7-7-7-7-7-7-7-| X2
E|-x-x-x-7-7-7-7-0-0-0-0-0-0-0-0-0-|

I made my mind up last night...

E|--x-x-x-x-x-x-x---2-2-2-2-2-2-2----------------|
B|--4-4-4-4-4-4-4---4-4-4-4-4-4-4----------------|
G|--4-4-4-4-4-4-4---4-4-4-4-4-4-4----------------|
D|--3-3-3-3-3-3-3---2-2-2-2-2-2-2----------------|
A|--4-4-4-4-4-4-4---2-2-2-2-2-2-2----------------|
E|--x-x-x-x-x-x-x---x-x-x-x-x-x-x----------------|

---2-2-2-2-2-2-2---x--x-x-x-x-x-------|
---4-4-4-4-4-4-4---4--4-4-4-4-4-------|
---4-4-4-4-4-4-4---4--4-4-4-4-4-------|
---4-4-4-4-4-4-4---3--3-3-3-3-3-------|
---2-2-2-2-2-2-2---4--4-4-4-4-4-------|
---x-x-x-x-x-x-x---x--x-x-x-x-x-------|

that heaven just cant...

E|--x--x--x--x------|
B|--x--x--x--x------|
G|--4--4--4--3------|
D|--2--2--2--4------|
A|--2--4--2--4------| X1
E|--0--2--4--2------|

have you.

E|-----2-------0-------2-------0-------2-------0-------2-------0---|
B|-------4-------4-------4-------4-------4-------4-------4-------4-|
G|---4-------4-------4-------4-------4-------4-------4-------4-----|
D|-----------------------------------------------------------------|
A|-----------------------------------------------------------------|
E|-0-------2-------4-------2-------0--------2------4-------2-------|

Bridge: (this part was a little tricky because i couldnt exsactly work out where the 
would put his hands when he did this part but its around these chords anyway)

(with 11 you can just move it to the 8th fret to make it easier, i just think 11 sounds pritty)

The sheets are creased
E|-0--0--0--0--0--0--0--0----|
B|-0--0--0--0--0--0--0--0----|
G|-11-11-11-11-11-11-11-11---|
D|-9--9--9--9--9--9--9--9----|
A|-7--7--7--7--7--7--7--7----|
E|-0--0--0--0--0--0--0--0----|

From your last stay.
E|-0-0-0-0-0-0-0-0----------|
B|-0-0-0-0-0-0-0-0----------|
G|-8-8-8-8-8-8-8-8----------|
D|-9-9-9-9-9-9-9-9----------|
A|-9-9-9-9-9-9-9-9----------|
E|-0-0-0-0-0-0-0-0----------|

A silhouette,
E|-0--0--0--0--0--0--0--0---------|
B|-0--0--0--0--0--0--0--0---------|
G|-8--8--8--8--8--8--8--8---------|
D|-9--9--9--9--9--9--9--9---------|
A|-11-11-11-11-11-11-11-11--------|
E|-9--9--9--9--9--9--9--9---------|

Of where you laid.
E|-0-0-0-0-0-0-0-0----------|
B|-0-0-0-0-0-0-0-0----------|
G|-8-8-8-8-8-8-8-8----------|
D|-9-9-9-9-9-9-9-9----------|
A|-9-9-9-9-9-9-9-9----------|
E|-0-0-0-0-0-0-0-0----------|

They'll find your headstone
E|-0--0--0--0--0--0--0--0----|
B|-0--0--0--0--0--0--0--0----|
G|-11-11-11-11-11-11-11-11---|
D|-9--9--9--9--9--9--9--9----|
A|-7--7--7--7--7--7--7--7----|
E|-0--0--0--0--0--0--0--0----|

in the yard
E|-0-0-0-0-0-0-0-0----------|
B|-0-0-0-0-0-0-0-0----------|
G|-8-8-8-8-8-8-8-8----------|
D|-9-9-9-9-9-9-9-9----------|
A|-9-9-9-9-9-9-9-9----------|
E|-0-0-0-0-0-0-0-0----------|

with your black dress
E|-0--0--0--0--0--0--0--0---------|
B|-0--0--0--0--0--0--0--0---------|
G|-8--8--8--8--8--8--8--8---------|
D|-9--9--9--9--9--9--9--9---------|
A|-11-11-11-11-11-11-11-11--------|
E|-9--9--9--9--9--9--9--9---------|

And my guitar.
E|-0-0-0-0-0-0-0-0----------|
B|-0-0-0-0-0-0-0-0----------|
G|-8-8-8-8-8-8-8-8----------|
D|-9-9-9-9-9-9-9-9----------|
A|-9-9-9-9-9-9-9-9----------|
E|-0-0-0-0-0-0-0-0----------|

I'll carry you back
E|-0--0--0--0--0--0--0--0----|
B|-0--0--0--0--0--0--0--0----|
G|-11-11-11-11-11-11-11-11---|
D|-9--9--9--9--9--9--9--9----|
A|-7--7--7--7--7--7--7--7----|
E|-0--0--0--0--0--0--0--0----|

to your grave
E|-0-0-0-0-0-0-0-0----------|
B|-0-0-0-0-0-0-0-0----------|
G|-8-8-8-8-8-8-8-8----------|
D|-9-9-9-9-9-9-9-9----------|
A|-9-9-9-9-9-9-9-9----------|
E|-0-0-0-0-0-0-0-0----------|


where you and i
E|-0--0--0--0--0--0--0--0---------|
B|-0--0--0--0--0--0--0--0---------|
G|-8--8--8--8--8--8--8--8---------|
D|-9--9--9--9--9--9--9--9---------|
A|-11-11-11-11-11-11-11-11--------|
E|-9--9--9--9--9--9--9--9---------|

will always stay
E|-0-0-0-0-0-0-0-0----------|
B|-0-0-0-0-0-0-0-0----------|
G|-8-8-8-8-8-8-8-8----------|
D|-9-9-9-9-9-9-9-9----------|
A|-9-9-9-9-9-9-9-9----------|
E|-0-0-0-0-0-0-0-0----------|


I close the casket, it gets dark, they'll find us in each others arms.

E|-----2-------0-------2-------0----|
B|-------4-------4-------4-------4--|(let it ring out for a bit)
G|---4-------4-------4-------4------|
D|----------------------------------|
A|----------------------------------|
E|-0-------2-------4-------2--------|


oh woah oh
E|-0--0--0--0--0--0--0--0----0-0-0-0-0-0-0-0----------|
B|-0--0--0--0--0--0--0--0----0-0-0-0-0-0-0-0----------|
G|-11-11-11-11-11-11-11-11---8-8-8-8-8-8-8-8----------|
D|-9--9--9--9--9--9--9--9----9-9-9-9-9-9-9-9----------|
A|-7--7--7--7--7--7--7--7----9-9-9-9-9-9-9-9----------|
E|-0--0--0--0--0--0--0--0----0-0-0-0-0-0-0-0----------|

oh woah oh oh oh
E|-0--0--0--0--0--0--0--0----0-0-0-0-0-0-0-0----------|
B|-0--0--0--0--0--0--0--0----0-0-0-0-0-0-0-0----------|
G|-8--8--8--8--8--8--8--8----8-8-8-8-8-8-8-8----------|
D|-9--9--9--9--9--9--9--9----9-9-9-9-9-9-9-9----------|  X4
A|-11-11-11-11-11-11-11-11---9-9-9-9-9-9-9-9----------|
E|-9--9--9--9--9--9--9--9----0-0-0-0-0-0-0-0----------|

(ending note)

E|-0
B|-0
G|-11
D|-9
A|-7
E|-0

i hope you like :)
my music myspace is:
www.myspace.com/siektanatura
Peace
Jimmy Davis.
Tap to rate this tab
# A B C D E F G H I J K L M N O P Q R S T U V W X Y Z