Song name
# A B C D E F G H I J K L M N O P Q R S T U V W X Y Z

Kisschasy - Dinosaur tab

-------------------------------------------------------------------------------
			     DINOSAUR - Kisschasy
-------------------------------------------------------------------------------
Tabbed by: dandaman208
Email: dandaman208@hotmail.com

Tuning: Standard (Capo 2)

There are some semi-correct tabs already here, but this is the way it is originally played. Enjoy.
All frets are relative to the capo. Strumming not included. Listen for timing.

  [Verse 1]
e|-----------------------------------------------------------------------------|
B|----------2--2-2-2----------2-2--2-2-2---------2-2--2-2-2----------2-2--2-2-2|
G|----------2--2-2-2----------2-2--2-2-2-----6-6-2-2--2-2-2----------2-2--2-2-2|
D|----------2--2-2-2----------2-2--2-2-2---/6-4--2-2--2-2-2----------2-2--2-2-2|
A|--------0-0--4-5-4----------0-0--4-5-4---------0-0--4-5-4----------0-0--4-5-4|
E|0-2-5-2-------------0-2-5-2--------------------------------0-2-5-2-----------|

  [Chorus]
e|-2----2----0----0------------------------------------------------------------|
B|-2----3----2----2-----------2----2----2---2----------------------------------|
G|-2----2----2----2-----------2----2----2---2----------------------------------|
D|-4----0----2----2-----------4----2----0---0----------------------------------|
A|-4---------0----0-----------0----1----0---0----------------------------------|
E|-2--------------------[x3]--0----0----0--------------------------------------|

  [Verse 2]
e|-----------------------------------------------------------------------------|
B|----2--2-2-2----------2-2--2-2-2---------2-2--2-2-2----------2-2--2-2-2------|
G|----2--2-2-2----------2-2--2-2-2-----6-6-2-2--2-2-2----------2-2--2-2-2------|
D|----2--2-2-2----------2-2--2-2-2---/6-4--2-2--2-2-2----------2-2--2-2-2------|
A|--0-0--4-5-4----------0-0--4-5-4---------0-0--4-5-4----------0-0--4-5-4------|
E|--------------0-2-5-2--------------------------------0-2-5-2-----------------|
 
  [Bridge]
e|-5x5x5-------2020--------2020-2x2x-2x2x-2x2x---------------------------------|
B|-22222-------2222--------2222-3434-2222-2222---------------------------------|
G|-22222-------2222--------3333-2333-2222-2222---------------------------------|
D|-22222-------2222--------4444-0000-2222-2222---------------------------------|
A|-00000-------0000--------4444------0000-0000---------------------------------|
E|-------[x8]--------[x12]-----------------------------------------------------|

  [Chorus]
e|-2----2----0----0------------------------------------------------------------|
B|-2----3----2----2-----------2----2----2---2----------------------------------|
G|-2----2----2----2-----------2----2----2---2----------------------------------|
D|-4----0----2----2-----------4----2----0---0----------------------------------|
A|-4---------0----0-----------0----1----0---0----------------------------------|
E|-2--------------------[x3]--0----0----0--------------------------------------|

  [Outro Chorus]
e|-2----2----0----0-------------------------------------0~---------------------|
B|-2----3----2----2-----------2----2----2---2-----------2~---------------------|
G|-2----2----2----2-----------2----2----2---2-----------2~---------------------|
D|-4----0----2----2-----------4----2----0---0-----------2~---------------------|
A|-4---------0----0-----------0----1----0---0-----------0~---------------------|
E|-2--------------------[x3]--0----0----0---0--[x2]----------------------------|



************************************

| /   slide up
| \   slide down
| h   hammer-on
| p   pull-off
| ~   vibrato
| +   harmonic
| x   Mute note
| b   Bend
| pb  Pre-bend
| br  Bend release
| pbr Pre-bend release
| brb Bend release bend

************************************
Tap to rate this tab
 
# A B C D E F G H I J K L M N O P Q R S T U V W X Y Z