Song name
# A B C D E F G H I J K L M N O P Q R S T U V W X Y Z

Kisschasy - Turnaround tab

Artist: Kisschasy
Song: Turnaround
Album: Seizures (Deluxe Edition)


Intro (lead) x10 

e|---------------------------------------------|
B|--10-10-9-9-10-10-9-9------------------------| 
G|---------------------------------------------|
D|---------------------------------------------|
A|---------------------------------------------|
E|---------------------------------------------|

11th time end on

e|---------------------------------------------|
B|--10-10---10-10------------------------------| 
G|---------------------------------------------|
D|---------------------------------------------|
A|---------------------------------------------|
E|---------------------------------------------|

Intro (rhythm)

e|---------------------------------------------|
B|---------------------------------------------| 
G|-------------------------------7-7-7-7-7-----|
D|--3-3-3--10-10-10-10-10-8-8-8--7-7-7-7-7-----|
A|--3-3-3--10-10-10-10-10-8-8-8--5-5-5-5-5-----|
E|--1-1-1--8--8--8--8--8--6-6-6----------------|

e|---------------------------------------------|
B|---------------------------------------------| 
G|--------7-7-7-7-7----------------------------|
D|-8-8-8--7-7-7-7-7--10-10-10--3-3-3-3-3-------|
A|-8-8-8--5-5-5-5-5--10-10-10--3-3-3-3-3-------|
E|-6-6-6-------------8--8--8---1-1-1-1-1-------|

Verse

e|---------------------------------------------|
B|---------------------------------------------| 
G|-------------------------------7-7-7-7-7-----|
D|--3-3-3--10-10-10-10-10-8-8-8--7-7-7-7-7-----|
A|--3-3-3--10-10-10-10-10-8-8-8--5-5-5-5-5-----|
E|--1-1-1--8--8--8--8--8--6-6-6----------------|

e|---------------------------------------------|
B|---------------------------------------------| 
G|--------7-7-7-7-7----------------------------|
D|-8-8-8--7-7-7-7-7--10-10-10--3-3-3-3-3-------|
A|-8-8-8--5-5-5-5-5--10-10-10--3-3-3-3-3-------|
E|-6-6-6-------------8--8--8---1-1-1-1-1-------|

Chorus (lead)

e|----------------------------------------------------------|
B|--10-10-9-9-10-10-9-9-(6 times then)----------------------| 
G|--------------------------------------10-10-10-10-9-9-9-9-|
D|----------------------------------------------------------|
A|----------------------------------------------------------|
E|----------------------------------------------------------|

e|---------------------------------------------|
B|--10-10-9-9-10-10-9-9-(6 times then intro)---| 
G|---------------------------------------------|
D|---------------------------------------------|
A|---------------------------------------------|
E|---------------------------------------------|

Chorus (rhythm) x2

e|-------------------------------------------------|
B|-------------------------------------------------| 
G|-------------------7-----------------------------| 
D|--8-----10----3----7-x3--8-----10-----3----------| 
A|--8-x3--10-x3-3-x3-5-----8-x3--10-x3--3-x6-------|
E|--6-----8-----1----------6-----8------1----------|

2nd time miss the last chord (F) and go straight to intro
Im not 100% on how many times the chorus chords are played its hard to hear over the lead
But this sounds right

Intro

Verse

Chorus

Solo

e|--------------------------------------------------------------|
B|----------------8-^10-8-10-^10-8-10--17-17-17-18-18-18-18-----| 
G|-10-10-10-9-9-9-----------------------------------------------|
D|--------------------------------------------------------------|
A|--------------------------------------------------------------|
E|--------------------------------------------------------------|

e|--------------------------------------------------------------|
B|----------------8-^10-8-10-^10-8-10--17-17-17-6-6-6-6-6-------| 
G|-10-10-10-9-9-9-----------------------------------------------|
D|--------------------------------------------------------------|
A|--------------------------------------------------------------|
E|--------------------------------------------------------------|

^ = bend

Bridge x3

e|---------------------------------------------|
B|---------------------------------------------| 
G|----------------7----------------------------|
D|-8-8-8-8-10-10--7----------------------------|
A|-8-8-8-8-10-10--5----------------------------|
E|-6-6-6-6-8--8--------------------------------|

e|---------------------------------------------|
B|---------------------------------------------| 
G|---------------------------------------------|
D|---8-8-10------------------------------------|
A|---8-8-10------------------------------------|
E|---6-6-8-------------------------------------|

Chorus until end

END

I'm pretty sure this is correct Thanks (:
Tap to rate this tab
 
# A B C D E F G H I J K L M N O P Q R S T U V W X Y Z