Song name
# A B C D E F G H I J K L M N O P Q R S T U V W X Y Z

Kisschasy - Do-dos And Whoa-ohs tab

----------------------------------------------------------------------------
	               Do-dos And Whoa-ohs - Kisschasy
----------------------------------------------------------------------------
Tabbed by: caldog
Email: frog_on_the_moon@hotmail.com

Tuning: standard

intro/verse
e|---------------------------------5-----|--------------------|
B|----------------------------------5-7--|--------------------|
G|---------------------------------------|--------------------|
D|--555-5550-00-000-555-5550-00-0--------|--999-999-999-9777--|
A|--555-5555-55-555-555-5555-55-5--------|--777-777-777-7555--|
E|---------------------------------------|--------------------|

chorus
e|------|-----------------------------------------------------------|
B|------|-----------------------------------------------------------|
G|------|-----------------------------------------------------------|
D|--77--|--555-77-999-44-555-77-999-44-555-77-999-44-555-77-999-44--|
A|--55--|--555-77-999-44-555-77-999-44-555-77-999-44-555-77-999-44--|
E|------|--333-55-777-22-333-55-777-22-333-55-777-22-333-55-777-22--|

intro/verse

verse fill
e|--------------------------------------------------|
B|--7b(8)b7----------7b(8)b7-5-------7b(8)b7----5~--|
G|---------7------------------7~------------7-------|
D|----------757-------------------------------57----|
A|--------------------------------------------------|
E|--------------------------------------------------|

e|----------------------------5~--------------------|
B|--7b(8)b7----------7b(8)b7-5-------7b(8)b7----5~--|
G|---------7--------------------------------7-------|
D|----------757-------------------------------57----|
A|--------------------------------------------------|
E|--------------------------------------------------|

chorus
chorus fill
e|--10-10-10-10-10-10-10-10-10-10-10---|
B|-------------------------------------|
G|----7--7--7--7--7--7--7--7--7--7--7--|
D|-------------------------------------|
A|-------------------------------------|
E|-------------------------------------|

solo
e|------------5-----------------------------------|
B|--7b(8)b7----57--7b(8)b7---7b(8)b7b(8)b7b(8)b7--|
G|---------7--------------7-----------------------|
D|------------------------------------------------|
A|------------------------------------------------|
E|------------------------------------------------|

solo rhythm
e|-------------------------------|
B|-------------------------------|
G|-------------------------------|
D|--55-77-99-44--455-77-99-4444--|
A|--55-77-99-44--455-77-99-4444--|
E|--33-55-77-22-0233-55-77-2222--|

intro/verse with
outro fill
e|-------------------------5------------------------------5/7\5------|
B|--7b(8)(8)(8)(8)(8)b7-5------57--7b(8)(8)(8)(8)(8)b7-5---------57--|
G|-----------------------7--7-7-------------------------7-------7----|
D|-------------------------------------------------------------------|
A|-------------------------------------------------------------------|
E|-------------------------------------------------------------------|

chorus with chorus fill
intro/verse with outro fill

keyboard lead
e|--17----17----17----17----17------17----17----17----17----17--------|
B|----1917--1917--1917--1917--191715--1917--1917--1917--1917--191715--|
G|--------------------------------------------------------------------|
D|--------------------------------------------------------------------|
A|--------------------------------------------------------------------|
E|--------------------------------------------------------------------|

outro
e|--------------|
B|--------------|
G|--------------|
D|--666-77-999--|
A|--666-77-999--|
E|--444-55-777--|


| /  slide up
| \  slide down
| b  bend
| ~  vibrato

============================================================================
Tap to rate this tab
# A B C D E F G H I J K L M N O P Q R S T U V W X Y Z