Song name
# A B C D E F G H I J K L M N O P Q R S T U V W X Y Z

Kisschasy - Face Without A Name tab

----------------------------------------------------------------------------
		   Face Without A Name - Kisschasy
----------------------------------------------------------------------------
Tabbed by: caldog
Email: frog_on_the_moon@hotmail.com

Tuning: standard

intro/verse
e|----------------------------------------------------------------------|
B|----------------------------------------------------------------------|
G|--4-45-4-5-4-5-44--4-45-4-5-4-5-44--4-45-4-5-4-5-44--4-45-4-5-4-5-44--|
D|--5-55-5-5-5-5-55--5-55-5-5-5-5-55--5-55-5-5-5-5-55--5-55-5-5-5-5-55--|
A|------------------------------------3-33-3-3-3-3-33--0-00-0-0-0-0-00--|
E|--3-33-3-3-3-3-33--3-33-3-3-3-3-33------------------------------------|

chorus
e|-----------------------------------------------------------|
B|-----------------------------------------------------------|
G|--44-44-55-55-----------------44-44-55-55------------------|
D|--44-44-55-55-555-555-555-555-44-44-55-55-555-555-555-555--|
A|--22-22-33-33-555-555-555-555-22-22-33-33-555-555-555-555--|
E|--------------333-333-333-333-------------333-333-333-333--|

intro/verse

chorus 2
e|-----------------------------------------------------------|
B|-----------------------------------------------------------|
G|--44-44-55-55-----------------44-44-55-55---------555-555--|
D|--44-44-55-55-555-555-555-555-44-44-55-55-777-777-555-555--|
A|--22-22-33-33-555-555-555-555-22-22-33-33-777-777-333-333--|
E|--------------333-333-333-333-------------555-555----------|

solo
e|-------------------------------------------------------------|
B|--1210---1210---1210---1210---1210---1210---1210---131210----|
G|------12-----12-----12-----12-----12-----12-----12-------12--|
D|-------------------------------------------------------------|
A|-------------------------------------------------------------|
E|-------------------------------------------------------------|

solo rhythm
e|-----------------------------------|
B|-----------------------------------|
G|----------555-555---------555-555--|
D|--555-555-555-555-777-777-555-555--|
A|--555-555-333-333-777-777-333-333--|
E|--333-333---------555-555----------|

post-solo
e|--------------------------------------------------------|
B|--------------------------------------------------------|
G|--44-----------------------44-44-55-55---------555-555--|
D|--44------555-555-555-555--44-44-55-55-777-777-555-555--|
A|--22------555-555-555-555--22-22-33-33-777-777-333-333--|
E|----------333-333-333-333--------------555-555----------|

solo/solo rhythm

ending note
e|-----------|-----|
B|--10b(11)--|-----|
G|-----------|-----|
D|-----------|--5--|
A|-----------|--5--|
E|-----------|--3--|

thats it. listen to song for exact timing and any correction email me.

b bend


============================================================================
Tap to rate this tab
# A B C D E F G H I J K L M N O P Q R S T U V W X Y Z