Guitaretab - guitar tabs
Song name
# A B C D E F G H I J K L M N O P Q R S T U V W X Y Z

Kisschasy - Do-dos And Whoa Ohs tab

Do Dos and Whoa Ohs

Im pretty sure this tab is 99% correct but if you have any corrections, please email 
Its a pretty easy song. Enjoy!
(b= bend, x= scratch, h= hammer-on, p= pull-off & ~= vibrato/ ring)

Intro
Guitar 1 only
e|----------------------------------5---------|
B|-77777777-77777777-77777777-77777--5-7-----|
G|-77777777-77777777-77777777-77777-----------| x2
D|-55555555-00000000-55555555-00000-----------|
A|--------------------------------------------|
E|--------------------------------------------|

Verse 1
Guitar 1 only
e|----------------------------------5--------------------------------------------|
B|-77777777-77777777-77777777-77777--5-7-77777777-77777777----------------------|
G|-77777777-77777777-77777777-77777-------77777777-77777777-9999999999999777-----| x2
D|-55555555-00000000-55555555-00000-------55555555-00000000-9999999999999777-----|
A|----------------------------------------------------------7777777777777555-----|
E|-------------------------------------------------------------------------------|

1st Chorus
Guitar 1 & 2
e|--------------------|
B|--------------------|
G|--------------------| x4
D|-555--777--999--444-|
A|-555--777--999--444-|
E|-333--555--777--222-|

Repeat Intro

Verse 2
Guitar 1- Play Verse 1
Guitar 2
e|---------------------------------------------------------------|
B|---------------------------------------------------------------|
G|-11-11b11--------------11-11b11-------11-11b11-----------------|
D|----------12--------------------12~------------12----------14~-|
A|-------------12-10-12-----------------------------12-10-12-----|
E|---------------------------------------------------------------|

e|---------------------------------------------------------------|
B|---------------------------------------------------------------|
G|-11-11b11--------------11-11b11-14~---11-11b11-----------------|
D|----------12-----------------------------------12----------14~-|
A|-------------12-10-12-----------------------------12-10-12-----|
E|---------------------------------------------------------------|

2nd Chorus
From the 2nd half of the chorus Guitar 2 play this til the end of the chorus
e|-1010101010101010101010-|
B|-1010101010101010101010-|
G|-7-7-7-7-7-7-7-7-7-7-7--|
D|------------------------|
A|------------------------|
E|------------------------|
[ Tab from: http://www.guitaretab.com/k/kisschasy/65512.html ]
Bridge
Guitar 1
e|------------------------------------------|
B|------------------------------------------|
G|------------------------------------------| x2
D|-5-5-------7-7-------9-9-------4-4-x-x-45-|
A|-5-5-------7-7-------9-9-------4-4-x-x-45-|
E|-3-3-------5-5-------7-7-------2-2-x-x-23-|

Guitar 2
e|----------------------------------------------------|
B|------------------10--------------------------------|
G|----11b-9------------9-11------11b-9----11b11b11b11-| x2
D|----------12-------------------------12-------------|
A|----------------------------------------------------|
E|----------------------------------------------------|

The Whoa Ohs bit
Guitar 1
e|--------------------------------------------|
B|-77777777-77777777-77777777-77777777--------|
G|-77777777-77777777-77777777-77777777--------| x4
D|-55555555-00000000-55555555-00000000--------|
A|--------------------------------------------|
E|--------------------------------------------|

After Guitar 1 has finished the above bit for the 1st time, Guitar 2 starts playing:

e|-----------------------------------------------------------------|
B|-12~-12~12-11-9-------14--9-11-12~12~-12-11-9----14h16p14-9-11-|
G|-----------------12-----------------------------12---------------| x3
D|--------------------12-------------------------------------------|
A|-----------------------------------------------------------------|
E|-----------------------------------------------------------------|

2nd Chorus

Ending
Guitar 1
e|----------------------------------------|
B|----------------------------------------|
G|-77777777777777777777777777777777777777-|
D|-77777777777777777777777777777777777777-| Play until the moog/ Guitar 2
A|-55555555555555555555555555555555555555-| finished its part for the 4th
E|----------------------------------------| time then play the end

Guitar 2
e|-----------------------------------------------------------------|
B|-12~-12~12-11-9-------14--9-11-12~12~-12-11-9----14h16p14-9-11-|
G|-----------------12-----------------------------12---------------| x2
D|--------------------12-------------------------------------------|
A|-----------------------------------------------------------------|
E|-----------------------------------------------------------------|

Moog transposed for Guitar 2
e|--------------------------------------|
B|--------------------------------------|
G|-10-7---10-7---10-7---10-7---8-7------|
D|------9------9------9------9-----9-7--| x4
A|--------------------------------------|
E|--------------------------------------|

Then both Guitars
e|-------------|
B|-------------|
G|-------------|
D|-555-777-999-|
A|-555-777-999-|
E|-333-555-777-|
Related for Do-dos And Whoa Ohs tab