Song name
# A B C D E F G H I J K L M N O P Q R S T U V W X Y Z

Kisschasy - This Bed tab

Kisschasy
This Bed
Transcribed by Brett Layden

Key:  . = palm mute
    < > = natural harmonic
      / = slide
    [ ] = pinch harmonic
      x = mute


Intro/Verse:
e--------------------------------|
B------5------5------5-4-5-------|
G------4------4------4-4-4-------|  (x6)
D--------------------------------|
A---2------4------0--------------|
E--------------------------------|


Pre-chorus:
e-----0----0-----0----0---4----4--------2----------------|
B----2----2-----2----2-----5----5-----2-----2--[7]-------|
G---------------------------4----4--3-----3--------------|
D--------------------------------------------------------|
A--4----4-----3-----3------------------------------------|
E--------------------------------------------------------|

Chorus pt1:
e--------------------------------------------------------------------------------------------------|
B--------------------------------------------------------------------------------------------------|
G--------------------------------------------------------------------------------------------------|
D--7-7-xxx-7-7-xxx-9-9-xxx-9-9-xxx-------7-7-xxx-7-7-xxx-9--9-9--9-9-9---11--11-11--11-11-11-------|
A--7-7-xxx-7-7-xxx-9-9-xxx-9-9-xxx--(x2)-7-7-xxx-7-7-xxx-9--9-9--9-9-9---11--11-11--11-11-11--(x2)-|
E--5-5-xxx-5-5-xxx-7-7-xxx-7-7-xxx-------5-5-xxx-5-5-xxx-7--7-7--7-7-7---9---9--9---9--9--9--------|

Chorus pt2:
|e--------------------------------------------------------|
|B--------------------------------------------------------|
|G--9--9-8--9-9-8--9-9-8--9-9-----------------------------|
|D--------------------------------------------------------|
|A--------------------------------------------------------|
|E--------------------------------------------------------|
|
|e--------------------------------------------------------|
|B--------------------------------------------------------|
|G--------------------------------------------------------|
|D--7--7-7--7-7-7--7-7-7--7-7-----------------------------|
|A--7--7-7--7-7-7--7-7-7--7-7-----------------------------|
|E--5--5-5--5-5-5--5-5-5--5-5-----------------------------|


Pre verse2:
|e------------------------------<7>-<12>---------------------<12>--------------|
|B--------------------------------------<7>------------------------------------|
|G-----------------------------------------------------------------------------|
|D-----------------------------------------------------------------------------|
|A-----------------------------------------------------------------------------|
|E-----------------------------------------------------------------------------|
|
|e-----------------------------------------------------------------------------|
|B-----------------------------------------------------------------------------|
|G-----------------------------------------------------------------------------|
|D-----------------------------------------------------------------------------|
|A---/7------------------------------------------------------------------------|
|E------------4-------5----------------------7--------0-------5----------------|
|
|e-----------------------------------------------------------------------------|
|B--------5------5-------5--4--5------------------5------5-------5--4--5-------|
|G--------4------4-------4--4--4------------------4------4-------4--4--4-------|
|D-----------------------------------------------------------------------------|
|A---2--------4-------0----------------------2--------4-------0----------------|
|E-----------------------------------------------------------------------------|

Intro/verse x2

e-----------------------------------------------------------------------------|
B-----------------------------------------------------------------------------|
G-----------------------------------------------------------------------------|
D--9--9-9--9-9--9--11--11-11--11-11--11--7--7-7--7-7--7---7--7-7--7-7--7------|
A--9--9-9--9-9--9--11--11-11--11-11--11--7--7-7--7-7--7---7--7-7--7-7--7------|(x2)
E--7--7-7--7-7--7--9---9--9---9--9---9---5--5-5--5-5--5---5--5-5--5-5--5------|
      .    . .         .      .  .          .    . .         .    . .

Pre-chorus

Chorus pt1 then

e------------------|
B------------------|
G------------------|
D--7---------------|
A--7--let-ring-----|
E--5---------------|

Bridge:
pt1
|e-----0------0------0---4------|
|B----2------2------2------5----|
|G--6------5------4---------6---|
|D------------------------------|
|A------------------------------|
|E------------------------------|
|                                   (x2)
|e------------------------------|
|B------------------------------|
|G-----6------6------6------6---|
|D----6------6------6------6----|
|A--4------3------2-------------|
|E-----------------------6------|


pt2
|e----------0----------0----------0----4-------------------|
|B-------2----------2----------2----------5----------------|
|G----6----------5----------4----------------6-------------|
|D---------------------------------------------------------|
|A---------------------------------------------------------|
|E---------------------------------------------------------|
|                                                              (x3)
|e---------------------------------------------------------|
|B---------------------------------------------------------|
|G---------------------------------------------------------|
|D----6--6--6-6--6--6--6-6--6--6--6-6--6--6--6-6-----------|
|A----4--4--4-4--3--3--3-3--2--2--2-2--x--x--x-x-----------|
|E-------------------------------------6--6--6-6-----------|


pt3
|e----------0----------0----------0-----------------------------|
|B-------2----------2----------2--------------------------------|
|G----6----------5----------4-----------------------------------|
|D--------------------------------------------------------------|
|A--------------------------------------------------------------|
|E--------------------------------------------------------------|
|
|e-----------------------------------------------------------0--|
|B-----------------------------------------------------------x--|
|G----------------------------------------6-6--6-6--6--6-6-6-6--|
|D----6--6--6-6--6--6--6-6--6--6--6-6--6--6-6--6-6--6--6-6-6-6--|
|A----4--4--4-4--3--3--3-3--2--2--2-2--x--x-x--x-x--x--x-x-x-x--|
|E-------------------------------------6--6-6--6-6--6--6-6-6-5--|

pt4
e--------0-------0--------0--------0----------------------|
B--------2-------2--------2--------2----------------------|
G-----1-------1--------1--------1-------------------------|
D---------------------------------------------------------|
A---0-------0--------0--------0---------------------------|
E---------------------------------------------------------|


Pre verse3:
|e---------------------------------------------------------|
|B---------------------------------------------------------|
|G---------------------------------------------------------|
|D---------------------------------------------------------|
|A---/7-----------------------/7----/9------/14------------|
|E----------4------5---------------------------------------|
|
|e---------------------------------------------------------|
|B------5------5------5-4-5-------5-----5------5--4--5-----|
|G------4------4------4-4-4-------4-----4------4--4--4-----|
|D---------------------------------------------------------|
|A---2------4------0-----------2-----4------0--------------|
|E---------------------------------------------------------|


Verse3:
|e---------------------------------------------------------|
|B------5------5------5-4-5-------5-----5---5--------------|
|G------4------4------4-4-4-------4-----4---4--------------|
|D------------------------------------------x--------------|
|A---2------4------0-----------2-----4------0--------------|
|E---------------------------------------------------------|
|
|e---------------------------------------------------------|
|B---------------------------------------------------------|
|G---------------------------------------------------------|
|D------------------------------------------7--------------|
|A------------------------------------------7--(fade-in)---|
|E------------------------------------------5--------------|

chorus3:
|e-----------------------------------------------------------------------|
|B-----------------------------------------------------------------------|
|G-----------------------------------------------------------------------|
|D--7--7-7--7-7-7--7--7-7--7-7-7--9--9-9---9-9-9--11--11-11--11-11-11----|
|A--7--7-7--7-7-7--7--7-7--7-7-7--9--9-9---9-9-9--11--11-11--11-11-11----|
|E--5--5-5--5-5-5--5--5-5--5-5-5--7--7-7---7-7-7--9---9--9---9--9--9-----|
|                                                                           (x2)
|e-----------------------------------------------------------------------|
|B--9h10p9----------------------------------------9---9--9-9-9--9--9-----|
|G----------11--9--9-------9---11-9--9-9-9-9-9-9-------------------------|
|D--------------------9--------------------------------------------------|
|A-----------------------------------------------------------------------|
|E-----------------------------------------------------------------------|


|e-----------------------------------------------------------------------|
|B-----------------------------------------------------------------------|
|G-----------------------------------------------------------------------|
|D--7--7--x-7--7--7--x-7--9--9--x-9--11--11--x-11------------------------|
|A--7--7--x-7--7--7--x-7--9--9--x-9--11--11--x-11------------------------|
|E--5--5--x-5--5--5--x-5--7--7--x-7--9---9---x-9-------------------------|
|                                                                           (x2)
|e--12(tremolo)----------------------------------------------------------|
|B-----------------------------------------------------------------------|
|G-----------------------------------------------------------------------|
|D-----------------------------------------------------------------------|
|A-----------------------------------------------------------------------|
|E-----------------------------------------------------------------------|

Chorus pt2 x2
Bridge pt2 x3

e--------------------------------------------------------0---------------|
B--------------------------------------------------------x---------------|
G---6--6-6--6-6--6--6-6-6-6----6--6-6--6-6--6--6-6-6-6---6---------------|
D---6--6-6--6-6--6--6-6-6-6----6--6-6--6-6--6--6-6-6-6---6---------------|
A---x--x-x--x-x--x--x-x-x-x----x--x-x--x-x--x--x-x-x-x---x---------------|
E---5--5-5--5-5--5--5-5-5-6----5--5-5--5-5--5--5-5-5-6---5---------------|
Tap to rate this tab
 
# A B C D E F G H I J K L M N O P Q R S T U V W X Y Z