Song name
# A B C D E F G H I J K L M N O P Q R S T U V W X Y Z

Kisschasy - What We Become tab

KISSCHASHY - WHAT WE BECOME
TAB WRITTEN BY= Elly Greene and Jessica Daynes

We tabbed this to the best of our ability, but the chorus might be off a little bit 
as the solo. If there are any problems, email us at headtechster@gmail.com.


Key:
b = bend
/ = slide forward
\ = slide back
~ = vibrato
h = hammer-on
p = pull-off


                     Intro:

First Guitar:
E|-------------------------------------------------|
B|-12-12-12----------------10-10-10-10-10-10-10-10-|
G|----------12-12-12-9-9-9-------------------------|
D|-------------------------------------------------|
A|-------------------------------------------------|
E|-------------------------------------------------|

Second Guitar:
E|--------------------2-2-2-2-2-2-2-2--------------|
B|-5-5-5-------------------------------------------|
G|--------4-4-4-5-5-5------------------------------|
D|-------------------------------------------------|
A|-------------------------------------------------|
E|-------------------------------------------------|


                    Verse 1:

Second Guitar:
E|-------------------------------------------------|
B|-17----19b---------------------------------------|
G|----16-------------------------------------------|
D|-------------------------------------------------|
A|-------------------------------------------------|
E|-------------------------------------------------|

E|-------------------------------------------------|
B|-------------------------------------------------|
G|-9-9-9-9-9-9-9-9-9-9-9-9-9-9-9-9-----------------|
D|-9-9-9-9-9-9-9-9-9-9-9-9-9-9-9-9-----------------|
A|-7-7-7-7-7-7-7-7-7-7-7-7-7-7-7-7-----------------|
E|-------------------------------------------------|

                    Pre Chorus:
First Guitar:
E|-------------------------------------------------|
B|-------------------------------------------------|
G|-5-5-7-7-----------------------------------------|
D|-5-5-7-7-2---------------------------------------|
A|-3-3-5-5-2---------------------------------------|
E|---------0---------------------------------------|

                      CHORUS:


First Guitar:
E|-----------------------------------------------|
B|-----------------------------------------------|
G|-5-5-5-5-7-7-7---------------------------------|
D|-5-5-5-5-7-7-7-2-2-2-2-2-2-2-2-----------------|
A|-3-3-3-3-5-5-5-2-2-2-2-2-2-2-2-----------------|
E|---------------0-0-0-0-0-0-0-0-----------------|

Second Guitar:
E|---12--------------------------------------------|
B|----------------------------------12-------------|
G|---------12-11/12\11/12\11/12\11-----------------|
D|-------------------------------------------------|
A|-------------------------------------------------|
E|-------------------------------------------------|

Bridge:
E|-------------------------------------------------|
B|-------------------------------------------------|
G|-------------------------------------------------|
D|-------------------------------------------------|
A|-------------------------------------------------|
E|--/12~-------------------------------------------|


                     VERSE 2:


First Guitar:
E|-------------------------------------------------|
B|-12-12-12----------------10-10-10-10-10-10-10-10-|
G|----------12-12-12-9-9-9-------------------------|
D|-------------------------------------------------|
A|-------------------------------------------------|
E|-------------------------------------------------|

Second Guitar:
E|--------------------2-2-2-2-2-2-2-2--------------|
B|-5-5-5-------------------------------------------|
G|--------4-4-4-5-5-5------------------------------|
D|-------------------------------------------------|
A|-------------------------------------------------|
E|-------------------------------------------------|

Second Guitar:
E|--------------------2-2-2-2-3-2------------------|
B|-5-5-5--------------------------5----------------|
G|--------4-4-4-5-5-5------------------------------|
D|-------------------------------------------------|
A|-------------------------------------------------|
E|-------------------------------------------------|

Second Guitar solo:
E|------------5---5/7-5-7-/12~\--------------------|
B|--5-7-8-7/8---8----------------------------------|
G|-------------------------------------------------|
D|-------------------------------------------------|
A|-------------------------------------------------|
E|-------------------------------------------------|

First Guitar:
E|-------------------------------------------------|
B|-12-12-12----------------10-10-10-10-10-10-10-10-|
G|----------12-12-12-9-9-9-------------------------|
D|-------------------------------------------------|
A|-------------------------------------------------|
E|-------------------------------------------------|

Second Guitar:
E|--------------------2-2-2-2-2-2-2-2--------------|
B|-5-5-5-------------------------------------------|
G|--------4-4-4-5-5-5------------------------------|
D|-------------------------------------------------|
A|-------------------------------------------------|
E|-------------------------------------------------|

E|-------------------------------------------------|
B|-------------------------------------------------|
G|-9-9-9-9-9-9-9-9-9-9-9-9-9-9-9-9-----------------|
D|-9-9-9-9-9-9-9-9-9-9-9-9-9-9-9-9-----------------|
A|-7-7-7-7-7-7-7-7-7-7-7-7-7-7-7-7-----------------|
E|-------------------------------------------------|

                    Pre Chorus:
First Guitar:
E|-------------------------------------------------|
B|-------------------------------------------------|
G|-5-5-7-7-----------------------------------------|
D|-5-5-7-7-2---------------------------------------|
A|-3-3-5-5-2---------------------------------------|
E|---------0---------------------------------------|


                      CHORUS:


First Guitar:
E|-----------------------------------------------|
B|-----------------------------------------------|
G|-5-5-5-5-7-7-7---------------------------------|
D|-5-5-5-5-7-7-7-2-2-2-2-2-2-2-2-----------------|
A|-3-3-3-3-5-5-5-2-2-2-2-2-2-2-2-----------------|
E|---------------0-0-0-0-0-0-0-0-----------------|

Second Guitar:
E|---12--------------------------------------------|
B|----------------------------------12-------------|
G|---------12-11/12\11/12\11/12\11-----------------|
D|-------------------------------------------------|
A|-------------------------------------------------|
E|-------------------------------------------------|

(ONLY DRUMS THEN CHORUS AGAIN)


                               MAIN SOLO:

E|-17b-17br-15----15-------------------------------------------------------------------|
B|-------------17----17-15-17-17h-19p-17-15h-17p-15-13h-15p-13-12h-13p-12-10h-12p-10---|
G|-------------------------------------------------------------------------------------|
D|-------------------------------------------------------------------------------------|
A|-------------------------------------------------------------------------------------|
E|-------------------------------------------------------------------------------------|

E|-------------15-15h-17p-15--------15h-17p-15-------15h-17p-15-------15h-17p-15--------|
B|-8h-10p-8-7~---------------17--17------------17-17------------17-17------------17-15b-|
G|--------------------------------------------------------------------------------------|
D|--------------------------------------------------------------------------------------|
A|--------------------------------------------------------------------------------------|
E|--------------------------------------------------------------------------------------|

E|------------------------------------15-15b-15h-17p-15----------------------------------|
B|-12b-12b-15-12-15b-15b-15b-15b-15b--------------------17-17h-19p-17-15h-17p-15h-17p-15-|
G|---------------------------------------------------------------------------------------|
D|---------------------------------------------------------------------------------------|
A|---------------------------------------------------------------------------------------|
E|---------------------------------------------------------------------------------------|

E|-------------------------------------------------|
B|-13h-15p-13-12h-13p-12-10h-12p-10-8h-10p-8-------|
G|-------------------------------------------8b----|
D|-------------------------------------------------|
A|-------------------------------------------------|
E|-------------------------------------------------|
Tap to rate this tab
 
# A B C D E F G H I J K L M N O P Q R S T U V W X Y Z