Song name
# A B C D E F G H I J K L M N O P Q R S T U V W X Y Z

Kisschasy - Black Dress tab

Help us improve GuitareTab! Take a short survey!
Tuning: Standard

This is the last song on the kisschasy album United Paper People, Enjoy!







Intro: 0:00

E|-----0-------0-------0-------0---|
B|-----0-------0-------0-------0---|
G|-----8-------8-------8-------8---|
D|-----9-------9-------9-------9---|
A|-6-6-----------7-7-7---7-7-7---7-| X2
E|-------7-7-7---------------------|

Verse: 0:10

E|-----0-------0-------0-------0---|
B|-----0-------0-------0-------0---|
G|-----8-------8-------8-------8---|
D|-----9-------9-------9-------9---|
A|-6-6-----------7-7-7---7-7-7---7-| X4
E|-------7-7-7---------------------|

Pre Chorus: 0:28

E|---------0-----------------------|
B|-----0---0-----------------------|
G|-8---8---8---6-------------------|
D|-6---9---9---6-------4---4---4---|
A|-8---7---9---8---2---------------| X1
E|-9---0-------9---0---2---4---6---|

Chorus: 0:43

E|-----2-------0-------2-------0-------2-------0---|
B|-------4-------4-------4-------4-------4-------4-|
G|-----------4-------4-------4---------------4-----|
D|---2-------------------------------2-------------|
A|-------------------------------------------------| X1
E|-0-------2-------4-------2-------0---------------|

Verse: 0:56

E|-----0-------0-------0-------0---|
B|-----0-------0-------0-------0---|
G|-----8-------8-------8-------8---|
D|-----9-------9-------9-------9---|
A|-6-6-----------7-7-7---7-7-7---7-| X4
E|-------7-7-7---------------------|

Pre Chorus: 1:15

E|---------0-----------------------|
B|-----0---0-----------------------|
G|-8---8---8---6-------------------|
D|-6---9---9---6-------4---4---4---|
A|-8---7---9---8---2---------------| X4
E|-9---0-------9---0---2---4---6---|

Chorus: 1:29

E|-----2-------0-------2-------0-------2-------0-------2-------0---|
B|-------4-------4-------4-------4-------4-------4-------4-------4-|
G|-----------4-------4-------4---------------4-------4-------4-----|
D|---2-------------------------------2-----------------------------|
A|-----------------------------------------------------------------| X1
E|-0-------2-------4-------2-------0-------2-------4-------2-------|

Bridge: 1:47

E|-0----0----0----0---|
B|-0----0----0----0---|
G|-8----8----8----8---|
D|-9----9----9----9---|
A|-7----9----11---9---| X4
E|-0------------------|

Chorus: 2:12

E|-----2-------0-------2-------0---|
B|-------4-------4-------4-------4-|
G|-----------4-------4-------4-----|
D|---2-----------------------------|
A|---------------------------------| X1
E|-0-------2-------4-------2-------|

Ending/Outro: 2:25

E|-0----0----0----0---|
B|-0----0----0----0---|
G|-8----8----8----8---|
D|-9----9----9----9---|
A|-7----9----11---9---| 

Play this through the part with the chellos and violins ect until the neds of the song

Enjoy 
E|-0------------------|
Related for Black Dress tab