Song name
# A B C D E F G H I J K L M N O P Q R S T U V W X Y Z

Kisschasy - United Paper People tab

Riff 1
|----------------------------------------------------------|
|----------------------------------------------------XXXX--|
|----------------------------------------------------XXXX--|
|----------------------------------------------------XXXX--|
|----------------------------------------------------XXXX--|
|--0-0-0-3-3-3-9-9-9-9-9-9-9-0-0-0-3-3-3-9-9-9-9-9-9-XXXX--|


Riff 2
|-------------------------------|
|-------------------------------|
|-------------------------------|
|--0-0-0-3-3-3-9-9-9-9-9-9-9-9--|
|--0-0-0-3-3-3-9-9-9-9-9-9-9-9--|
|--0-0-0-3-3-3-9-9-9-9-9-9-9-9--|


Lead for riff 2
e|-----------|
B|---9-------|
G|--11b(13)--|


Riff 3(palm muted)
|--------------------------------------|
|--------------------------------------|
|--------------------------------------|
|--5555555555555555-88888888888888888--|
|--5555555555555555-88888888888888888--|
|--5555555555555555-88888888888888888--|
Tap to rate this tab
# A B C D E F G H I J K L M N O P Q R S T U V W X Y Z