Song name
# A B C D E F G H I J K L M N O P Q R S T U V W X Y Z

Kisschasy - One Mistake tab

Note this only the the Rhythm part
Intro...
E|---------------------------------------------------------------|
B|---------------------------------------------------------------|
G|--------------------------------------0-0-0-0-0-0-0-0-0-0-0-0--|
D|--11-11-11-11-11-11-11-11-11-11-11-11-2-2-2-2-2-2-2-2-2-2-2-2--|
A|--11-11-11-11-11-11-11-11-11-11-11-11-2-2-2-2-2-2-2-2-2-2-2-2--|
E|--9--9--9--9--9--9--9--9--9--9--9--9--0-0-0-0-0-0-0-0-0-0-0-0--|
  ---------------------------------------------------------------|
  ---------------------------------------------------------------|
  ---------------------------------------------------------------|x2
  -7-7-7-7-7-7-7-7-7-7-7-7-4-4-4-4-4-4-4-4-4-4-4-4---------------|
  -7-7-7-7-7-7-7-7-7-7-7-7-4-4-4-4-4-4-4-4-4-4-4-4---------------|
  -5-5-5-5-5-5-5-5-5-5-5-5-2-2-2-2-2-2-2-2-2-2-2-2---------------|
end on
E|-------|
B|-------|
G|-------|
D|--11~--|
A|--11~--|
E|--9~---|

E|-----0---|
B|------4--|
G|----4----|
D|---2-----|
A|--4------|
E|---------|

E|-----------------|
B|--------------0--|
G|--6-6-6-0-0-0-2--|
D|--6-6-6-2-2-2-2--|
A|--4-4-6-2-2-2-0--|
E|-----------------|

E|---------------------------------------------------------------|
B|---------------------------------------------------------------|
G|--------------------------------------0-0-0-0-0-0-0-0-0-0-0-0--|
D|--11-11-11-11-11-11-11-11-11-11-11-11-2-2-2-2-2-2-2-2-2-2-2-2--|
A|--11-11-11-11-11-11-11-11-11-11-11-11-2-2-2-2-2-2-2-2-2-2-2-2--|
E|--9--9--9--9--9--9--9--9--9--9--9--9--0-0-0-0-0-0-0-0-0-0-0-0--|
  ---------------------------------------------------------------|
  ---------------------------------------------------------------|
  ---------------------------------------------------------------|
  -7-7-7-7-7-7-7-7-7-7-7-7-4-4-4-4-4-4-4-4-4-4-4-4---------------|
  -7-7-7-7-7-7-7-7-7-7-7-7-4-4-4-4-4-4-4-4-4-4-4-4---------------|
  -5-5-5-5-5-5-5-5-5-5-5-5-2-2-2-2-2-2-2-2-2-2-2-2---------------|
end on
E|-------|
B|-------|
G|-------|
D|--11~--|
A|--11~--|
E|--9~---|

E|-----0---|
B|------4--|
G|----4----|
D|---2-----|
A|--4------|
E|---------|

E|-----------------|
B|--------------0--|
G|--6-6-6-0-0-0-2--|
D|--6-6-6-2-2-2-2--|
A|--4-4-6-2-2-2-0--|
E|-----------------|

E|--------------------------------|
B|--------------0-0-0-------------|
G|--6-6-6-0-0-0-2-2-2-------------|
D|--6-6-6-2-2-2-2-2-2-4-4--4-4-4--|
A|--4-4-6-2-2-2-0-0-0-4-4--4-4-4--|
E|--------------------2-2--2-2-2--|

E|-----------------|
B|--------------0--|
G|--6-6-6-0-0-0-2--|
D|--6-6-6-2-2-2-2--|
A|--4-4-6-2-2-2-0--|
E|-----------------|

E|--------------------------------|
B|--------------0-0-0-------------|
G|--6-6-6-0-0-0-2-2-2-------------|
D|--6-6-6-2-2-2-2-2-2-4-4--4-4-4--|
A|--4-4-6-2-2-2-0-0-0-4-4--4-4-4--|
E|--------------------2-2--2-2-2--|

end on
E|------|
B|------|
G|------|
D|--4~--|
A|--4~--|
E|--2~--|
Tap to rate this tab
 
# A B C D E F G H I J K L M N O P Q R S T U V W X Y Z