Song name
# A B C D E F G H I J K L M N O P Q R S T U V W X Y Z

Kisschasy - Captain Obvious tab

Intro
|-------------------------------|------------------|
|--0-0-0-0-0-0-0-0-7-5-4h5------|------------------|
|--4-4-4-4-4-4-4-4-4-4-4--------|--3-33-4-4443-----|
|-------------------------------|--4-44-4-4444-----|
|-------------------------------|------------------|
|---------------------------x3--|--------------x1--|x2


Verse
|-----------------------------------|------------------------------------|
|-----------------------------------|---------------------7p5p4----------|
|-----------------------------------|------4-4-4-4-------4---------------|
|-----------------------------------|------------------------------------|
|--2-22-------44-6-66-------44------|--2-22-------44-6-66--------44------|
|--0-00-------22-4-44-------22--x2--|--0-00-------22-4-44--------22--x2--|
pm                                         .......       ........


Pre-Chorus
|--------|
|--------|
|----4~--|
|----x---|
|----2~--|
|--0-----|


Chorus
|--------------------------|
|--------------------------|
|--------------------------|
|--4~----------------------|
|--2~----2~---4-6~---4-2~--|
|--------0~---2-4~---2-0~--|x2


Verse 2 - the same


Pre-Chorus
|-----------------|
|-----------------|
|-----------------|
|-----------------|
|--2~----6-6-4-4--|
|--0~----4-4-2-2--|x4


Chorus - same


Bridge Part 1
|----------------------------------------------------|
|----------------------------------------------------|
|----------------------------------------------------|
|--88888888-66666-44444444--88888888-11111-44444444--|
|--66666666-44444-22222222--66666666-99999-22222222--|
|----------------------------------------------------|
pm....................................................


Part 2
|--------------------------|
|---4-5-7-5-4h5p4----------|
|--4---------------3-3-4b--|
|------------------4-4-4---|
|--------------------------|
|--------------------------|
Tap to rate this tab
 
# A B C D E F G H I J K L M N O P Q R S T U V W X Y Z