Song name
# A B C D E F G H I J K L M N O P Q R S T U V W X Y Z

Kisschasy - With Friends Like You Who Needs Friends tab

Intro:

e-----------------------------|
b-----------------------------|
g-----------------------------|
d---7-7-7-4-4-4-2-------------|
a---7-7-7-4-4-4-2-------------|
e---5-5-5-2-2-2-0-------------|

    Verse:

e-----------------------5-----|
b-----------------------6-----|
g-----------------------7-----|
d--7--------------------7-----|
a--7--------------------5-----|
e--5--------------------------|

e--5---5---5---5-----------5--|
b----5---5---5---5---x3----6--|
g--------------------------7--|
d--------------------------7--|
a--------------------------5--|
e-----------------------------|

e-------------------5---------|
b-------------------6---------|
g----------7--------7---------|
d--7---4---7--------7---------|
a--7---4---5--------5---------|
e--5---2----------------------|
   **********(mute)

e-------------------5---------|
b-------------------6---------|
g----------7--------7---------|
d--7---4---7--------7---------|
a--7---4---5--------5---------|
e--5---2----------------------|
   **********(mute)

e-----------------------------|
b-----------------------------|
g--4---7---9------------------|
d--4---7---9------------------|
a--2---5---7------------------|
e-----------------------------|

     Chorus:

e-----------------------------|
b-----------------------------|
g--7------9-------------------|
d--7---7--9-------------------|
a--5---7--7-------------------| repeat 3 times
e------5----------------------|

e-----------------------------|
b-----------------------------|
g--4---7----------------------|
d--4---7----------------------|
a--2---5----------------------|
e-----------------------------|

    Then play Intro riff:

e-----------------------------|
b-----------------------------|
g-----------------------------|
d---7-7-7-4-4-4-2-------------| repeat twice
a---7-7-7-4-4-4-2-------------|
e---5-5-5-2-2-2-0-------------|

    Verse: same as before

e-----------------------5-----|
b-----------------------6-----|
g-----------------------7-----|
d--7--------------------7-----|
a--7--------------------5-----|
e--5--------------------------|

e-----------------------5-----|
b--10p9---9p7-----------6-----|
g-----------------------7-----|
d---7p6---6p4-----------7-----|
a-----------------------5-----|
e-----------------------------|

i dont know what he plays during the 3rd bar, but its something similar to
the bar before it

e------------------------5----|
b------------------------6----|
g------------------------7----|
d------------------------7----|
a------------------------5----|
e-----------------------------|


e-----------------------------|
b-----------------------------|
g------9---7----9-9-----------|
d--4---9---7----9-9-----------|
a--4---7---5----7-7-----------|
e--2--------------------------|

    Chorus:

e-----------------------------|
b-----------------------------|
g--7------9-------------------|
d--7---7--9-------------------|
a--5---7--7-------------------| repeat 3 times
e------5----------------------|

e-----------------------------|
b-----------------------------|
g--4---7----------------------|
d--4---7----------------------|
a--2---5----------------------|
e-----------------------------|


    Solo: A, D, Dm x3 two quick E chords


e------------------------|--------------|
b------------------------|--------------|
g----------------------x3|---14---------|
d--11b12b11--------------|--------------|
a------------12-14-12----|--------------|
e------------------------|--------------|

				    2nd time round:
                                   ( play this instead of the a)

e------------------------|-----------[-------------|
b------------------------|-----------|-------------|
d---------------------x3-|-----------|--9-9-9------|
d--11b12b11--------------|-----14----|--9-9-9------|
a------------12-14-12----|-----------|--7-7-7------|   repeat whole thing
twice
e------------------------|-----------[-------------


    Chorus:

e-----------------------------|
b-----------------------------|
g--7------9-------------------|
d--7---7--9-------------------|
a--5---7--7-------------------| repeat 3 times
e------5----------------------|

e-----------------------------|
b-----------------------------|
g--4---7---9------------------|
d--4---7---9------------------|
a--2---5---7------------------|
e-----------------------------|

e-----------------------------|
b-----------------------------|
g--7------9-------------------|
d--7---7--9-------------------|
a--5---7--7-------------------| repeat 3 times
e------5----------------------|

e----------5-------5-------5--|
b----------6-------6-------6--|
g--4---7---7---7---7---7---7--|
d--4---7---7---7---7---7---7--|
a--2---5---5---5---5---5---5--|
e-----------------------------|

   Outro:

e-----------------------------|
b-----------------------------|
g-----------------------------|
d---7-7-7-4-4-4-2-------------|
a---7-7-7-4-4-4-2-------------|
e---5-5-5-2-2-2-0-------------| repeat 4 times
Tap to rate this tab
# A B C D E F G H I J K L M N O P Q R S T U V W X Y Z