Song name
# A B C D E F G H I J K L M N O P Q R S T U V W X Y Z

Kisschasy - Way They Walk tab

Intro/verse (Daz)
|---------------------------------------------------|
|---------------------------------------------------|
|---9--9--9--9--9--9--9--9--9--9--9--9--9--9--9--9--|
|----7-----7-----7-----7-----7-----7-----7-----7----|
|--9-----9-----0-----0-----9-----5-----0-----0------|
|---------------------------------------------------|

(Sean)
|--12-----12-----9---------------|
|----10-----10-----10---12-10----|
|-------9------9------9-------9--|
|--------------------------------|
|--------------------------------|
|--------------------------------|

Pre-Chorus
(Daz) B5

(Sean)
|--9---9-10-9----|
|---10-------10--|
|----------------|
|----------------|
|----------------|
|----------------|

CHORUS
(Daz)
|---------------------------|
|---------------------------|
|---------------------------|
|--0-0-0-0-0-0-2-2-2-6-6-6--|
|--0-0-0-0-0-0-2-2-2-4-4-4--|
|--0-0-0-0-0-0-2-2-2-4-4-4--|

(Sean)
I'll tab it later.

BRIDGE
|------------------9----12---------------------------|
|-----9-----10----10----12---------------------------|
|-----9-----9----------------------------------------|
|--00----00----00----00-----4-4-4b-4b-2-4-4-4b-4b-2--|
|--00----00----00----00-----4-4-4b-4b-2-4-4-4b-4b-2--|
|--00----00----00----00-----4-4-4b-4b-2-4-4-4b-4b-2--|

"Raise your fists to them, the underground idols.." (played  clean)
|--------------------------------------------------|----------------------------|--
|--------------------------------------------------|----------------------------|--
|--------------------------------------------------|----------------------------|--
|--9-9-9-9-9-9-0-0-0-0-0-0-4-4-4-4-4-4-7-7-7-2-2-2-|-9-9-9-9-9-9-0-0-0-0-0-0-0--|--
|--9-9-9-9-9-9-0-0-0-0-0-0-4-4-4-4-4-4-7-7-7-2-2-2-|-9-9-9-9-9-9-0-0-0-0-0-0-0--|--
|--9-9-9-9-9-9-0-0-0-0-0-0-4-4-4-4-4-4-7-7-7-2-2-2-|-9-9-9-9-9-9-0-0-0-0-0-0-0--|--

"...of a trend, soon to end" (distortion back on)
------------------------------|
------------------------------|
------------------------------|
--9-9-9-9-9--7--9-9-9-9-9--7--|
--9-9-9-9-9--7--9-9-9-9-9--7--|
--9-9-9-9-9--7--9-9-9-9-9--7--|

Tap to rate this tab
# A B C D E F G H I J K L M N O P Q R S T U V W X Y Z