Song name
# A B C D E F G H I J K L M N O P Q R S T U V W X Y Z

Kisschasy - Hey Jealosy tab

Intro....
E|-----|-----|------|-----|
B|-----|-----|------|-----|
G|--7--|--9--|--11--|--9--|
D|--7--|--9--|--11--|--9--|
A|--5--|--7--|--9---|--7--|
E|-----|-----|------|-----|
"tell me if you think..."
E|-----------------|
B|-----------------|
G|------9-----9----|
D|--------9--------|
A|-7--7-----7------|
E|-----------------|
Tap to rate this tab
# A B C D E F G H I J K L M N O P Q R S T U V W X Y Z