Song name
# A B C D E F G H I J K L M N O P Q R S T U V W X Y Z

Kisschasy - Real Untounched tab

Artist:Kisschasy
Song: Real & Untouched
Tabbed by Dale Townsend

Intro
E|-------------------------------|
B|-------------------------------|
G|-------------------------------|
D|-------------------------------|
A|4-4-4-4--------6-6-6-6---------|
E|--------4-4-4-4--------4-4-6-6-|

Verse
E|-------------------------------|
B|-------------------------------|
G|-------------------------------|
D|-------------------------------|
A|4-4-4-4--------6-6-6-6---------|
E|--------4-4-4-4--------4-4-6-6-|

Lead Verse
E|---------7-7---------7-7--------7-7-------4-4-|
B|---------7-7---------7-7--------7-7-------4-4-|
G|----------------------------------------------|
D|----------------------------------------------|
A|----------------------------------------------|
E|----------------------------------------------|

Chorus
E|------------------|
B|------------------|
G|----------------6-|
D|8-8-----4-4-----6-|
A|8-8-----4-4-----4-|
E|6-6-----2-2-------|
Tap to rate this tab
# A B C D E F G H I J K L M N O P Q R S T U V W X Y Z