Song name
# A B C D E F G H I J K L M N O P Q R S T U V W X Y Z

Kisschasy - Spray On Pants tab

-------------------------------------------------------------------------------
			     SPRAY ON PANTS - Kisschasy
-------------------------------------------------------------------------------
Tabbed by: Andy Chalmers
Email: andy_chalmers_102@yahoo.com.au

Tuning: standard

Intro/Verse:
Guitar 1:
e|-----------------------------|
B|-----------------------------|
G|-----------------------------|
D|-----------------------------|
A|-----------------------------|
E|--6--6--6-3-3-3-4--4--4-1-1-1| x10
Guitar 2 (comes in at “She speaks with a British accent”)
e|-------------------------|
B|-------------------------|
G|-------------------------|
D|--10-12--13---12---------|
A|------------------11--13-| x3
E|-------------------------|
Guitar 2:
e|---------------------------13-----------|
B|----------------------------------------|
G|-------------------------------13-13-13-|
D|-10-12--13--12-----------------x--x--x--|
A|------------------11--11-------11-11—11-|
E|----------------------------------------|

Chorus:
e|-----------------------------|
B|-----------------------------|
G|-3--3--3---------------------|
D|-3--3--3-5-5-5-6--6--6-3-3-3-|
A|-1--1--1-5-5-5-6--6--6-3-3-3-|
E|---------3-3-3-4--4--4-1-1-1-| x8

Verse 2:

Guitar 1:
e|-----------------------------|
B|-----------------------------|
G|-----------------------------|
D|-----------------------------|
A|-----------------------------|
E|--6--6--6-3-3-3-4--4--4-1-1-1| x8
Guitar 2 (comes in at “He’s learning the tambourine”)
e|-------------------------|
B|-------------------------|
G|-------------------------|
D|--10-12--13---12---------|
A|------------------11--13-| x3
E|-------------------------|
Guitar 2:
e|---------------------------13-----------|
B|----------------------------------------|
G|-------------------------------13-13-13-|
D|-10-12--13--12-----------------x--x--x--|
A|------------------11--11-------11-11—11-|
E|----------------------------------------|

Chorus:
e|-----------------------------|
B|-----------------------------|
G|-3--3--3---------------------|
D|-3--3--3-5-5-5-6--6--6-3-3-3-|
A|-1--1--1-5-5-5-6--6--6-3-3-3-|
E|---------3-3-3-4--4--4-1-1-1-| x8

Bridge:

e|-------------------------------|
B|-------------------------------|
G|-------------------------------|
D|--6--6--6-6-6-5--5---5-5-5-5-5-|
A|--6--6--6-6-6-6--6---6-6-6-6-6-|
E|--4--4--4-4-4-3--3---3-3-3-3-3-|

Verse 3:
Guitar 1:
e|-----------------------------|
B|-----------------------------|
G|-----------------------------|
D|-----------------------------|
A|-----------------------------|
E|--6--6--6-3-3-3-4--4--4-1-1-1| x10
Guitar 2 (comes in at “They try to get up and dance”)
e|-------------------------|
B|-------------------------|
G|-------------------------|
D|--10-12--13---12---------|
A|------------------11--13-| x3
E|-------------------------|
Guitar 2:
e|---------------------------13-----------|
B|----------------------------------------|
G|-------------------------------13-13-13-|
D|-10-12--13--12-----------------x--x--x--|
A|------------------11--11-------11-11—11-|
E|----------------------------------------|

Chorus/Outro:
e|-----------------------------|
B|-----------------------------|
G|-3--3--3---------------------|
D|-3--3--3-5-5-5-6--6--6-3-3-3-|
A|-1--1--1-5-5-5-6--6--6-3-3-3-|
E|---------3-3-3-4--4--4-1-1-1-| x16

| /  slide up
| \  slide down
| h  hammer-on
| p  pull-off
| ~  vibrato
| +  harmonic
| x  Mute note
===============================================================================

Tap to rate this tab
# A B C D E F G H I J K L M N O P Q R S T U V W X Y Z