Song name
# A B C D E F G H I J K L M N O P Q R S T U V W X Y Z

Kissin Dynamite - Supersonic Killer tab

|---------------------------------------------------------------------------|            
         Kissin' Dynamite - Supersonic Killer
|---------------------------------------------------------------------------|
                                  (INTRO)
Tuning: Standard (EADGHE)

/=slide
~=vibrato
b=bend


E|----------------|-----------------|
H|-/13-8-9-11-6~~~|-/13-8-9/16-13~~~|
G|----------------|-----------------|
D|----------------|-----------------|
A|----------------|-----------------|
E|----------------|-----------------|


                                    hold
E|----------------|-----------------|-----------------|
H|-/13-8-9-11-6~~~|-/13-8-9/16-13~~~|~~~~~~~~~~~~~~~~~|
G|----------------|-----------------|-----------------|
D|----------------|-----------------|-----------------|
A|----------------|-----------------|-----------------|
E|----------------|-----------------|-----------------|


E|------------------|
H|------------------|
G|----------5-4-----|
D|-7----5-4-5-4--5-4|
A|-7----5-4-3-2--5-4|
E|-5----3-2------3-2|


E|-------------------------|-16-15-14-13-----16-15-14-13-----|
H|-15b(17)-15b(17)-15(17)--|-------------15--------------15--|
G|-------------------------|---------------------------------|
D|-------------------------|---------------------------------|
A|-------------------------|---------------------------------|
E|-------------------------|---------------------------------|


E|-------------------------|
A|-15b(17)-15b(17)-15(17)~~|
G|-------------------------|
D|-------------------------|
A|-------------------------|
E|-------------------------|


http://www.kissin-dynamite.de/kd/
Tap to rate this tab
 
# A B C D E F G H I J K L M N O P Q R S T U V W X Y Z