Song name
# A B C D E F G H I J K L M N O P Q R S T U V W X Y Z

Kissing Promotion Freak - Welcome King tab

Song: Welcome King
Artist: Kissing Promotion Freak

Intro:

Acoustic Guitar:
e|---2-5-2-5---2-5-|---2-5-2-5-2-0-2-|-0---0-2-0---0-2-|---2-0---2---0---|
B|-3---------2-----|-3---------------|---3-------3-----|-3-----3---3-----|
G|-----------------|-----------------|-----------------|-----------------|
D|-----------------|-----------------|-----------------|-----------------|
A|-----------------|-----------------|-----------------|-----------------|
E|-----------------|-----------------|-----------------|-----------------|
                                                                      x2
e|---0-2-3-5-3-2-0-|---5-3-2-3-2-0-2-|---0-2-3-5-3-2-0-|-5-3-2-0---0-2-5-|
B|-3---------------|-3---------------|-3---------------|---------3-------|
G|-----------------|-----------------|-----------------|-----------------|
D|-----------------|-----------------|-----------------|-----------------|
A|-----------------|-----------------|-----------------|-----------------|
E|-----------------|-----------------|-----------------|-----------------|

Chorus:

Acoustic Guitar:
                              x2
e|-2-|-0-|---|---|---|---|---|---|
B|-3-|-2-|-3-|-2-|-0-|---|-0-|-2-|
G|---|---|-4-|-2-|-0-|-2-|-0-|-2-|
D|---|---|---|---|---|-4-|---|---|
A|---|---|---|---|---|---|---|---|
E|---|---|---|---|---|---|---|---|

Bridge:

Acoustic Guitar:
                              x16
e|-----------------------------------|
B|-----------------------------------|
G|-----------------------------------|
D|-4-4-4-4-7-7-4-4-4-4-7-7-4-4-7-7---|
A|-5-5-5-5-5-5-5-5-5-5-5-5-5-5-5-5---|
E|-----------------------------------|
  Pm---------------------------------|

Chorus:

Acoustic Guitar:
                              x2
e|-2-|-0-|---|---|---|---|---|---|
B|-3-|-2-|-3-|-2-|-0-|---|-0-|-2-|
G|---|---|-4-|-2-|-0-|-2-|-0-|-2-|
D|---|---|---|---|---|-4-|---|---|
A|---|---|---|---|---|---|---|---|
E|---|---|---|---|---|---|---|---|

Bridge #2:

Acoustic Guitar:
e|---2-5-2-5---2-5-|---2-5-2-5-2-0-2-|-0---0-2-0---0-2-|---2-0---2---0---|
B|-3---------2-----|-3---------------|---3-------3-----|-3-----3---3-----|
G|-----------------|-----------------|-----------------|-----------------|
D|-----------------|-----------------|-----------------|-----------------|
A|-----------------|-----------------|-----------------|-----------------|
E|-----------------|-----------------|-----------------|-----------------|
                                                                      x2
e|---0-2-3-5-3-2-0-|---5-3-2-3-2-0-2-|---0-2-3-5-3-2-0-|-5-3-2-0---0-2-5-|
B|-3---------------|-3---------------|-3---------------|---------3-------|
G|-----------------|-----------------|-----------------|-----------------|
D|-----------------|-----------------|-----------------|-----------------|
A|-----------------|-----------------|-----------------|-----------------|
E|-----------------|-----------------|-----------------|-----------------|

Chorus:

Acoustic Guitar:
                              x2
e|-2-|-0-|---|---|---|---|---|---|
B|-3-|-2-|-3-|-2-|-0-|---|-0-|-2-|
G|---|---|-4-|-2-|-0-|-2-|-0-|-2-|
D|---|---|---|---|---|-4-|---|---|
A|---|---|---|---|---|---|---|---|
E|---|---|---|---|---|---|---|---|

Bridge #3:

Acoustic Guitar:
                                              x2
e|-2---|-0-2-|-----|---2-|-----|---2-|-----|---2-|
B|-3---|-2---|-3---|-2---|-0---|-----|-0---|-2---|
G|-----|-----|-4---|-2---|-0---|-2---|-0---|-2---|
D|-----|-----|-----|-----|-----|-4---|-----|-----|
A|-----|-----|-----|-----|-----|-----|-----|-----|
E|-----|-----|-----|-----|-----|-----|-----|-----|

e|-2-2---2-2---2---|-0-0---0-0---0---|-----------------|-------------------|
B|-3-3---3-3---3---|-2-2---2-2---2---|-3-3---3-3---3---|-2-2---2-2---2-----|
G|-----------------|-----------------|-4-4---4-4---4---|-2-2---2-2---2-----|
D|-----------------|-----------------|-----------------|-------------------|
A|-----------------|-----------------|-----------------|-------------------|
E|-----------------|-----------------|-----------------|-------------------|
   Pm----------------------------------------------------------------------|
e|-----------------|-----------------|-----------------|-------------------|
B|-0-0---0-0---0---|-----------------|-0-0---0-0---0---|-2-2---2-2---2-----|
G|-0-0---0-0---0---|-2-2---2-2---2---|-0-0---0-0---0---|-2-2---2-2---2-----|
D|-----------------|-4-4---4-4---4---|-----------------|-------------------|
A|-----------------|-----------------|-----------------|-------------------|
E|-----------------|-----------------|-----------------|-------------------|
   Pm----------------------------------------------------------------------|

Outro:

Acoustic Guitar:

e|---2-5-2-5---2-5-|---2-5-2-5-2-0-2-|-0---0-2-0---0-2-|---2-0---2---0---|
B|-3---------2-----|-3---------------|---3-------3-----|-3-----3---3-----|
G|-----------------|-----------------|-----------------|-----------------|
D|-----------------|-----------------|-----------------|-----------------|
A|-----------------|-----------------|-----------------|-----------------|
E|-----------------|-----------------|-----------------|-----------------|

e|---0-2-3-5-3-2-0-|---5-3-2-3-2-0-2-|---0-2-3-5-3-2-0-|-5-3-2-0---0-2-5-|
B|-3---------------|-3---------------|-3---------------|---------3-------|
G|-----------------|-----------------|-----------------|-----------------|
D|-----------------|-----------------|-----------------|-----------------|
A|-----------------|-----------------|-----------------|-----------------|
E|-----------------|-----------------|-----------------|-----------------|

e|---0-2-3-5-3-2-0-|-5-3-2-0---0-2-5-|---0-2-3-5-3-2-0-|-5-3-2-0---0-2-5-|
B|-3---------------|---------3-------|-3---------------|---------3-------|
G|-----------------|-----------------|-----------------|-----------------|
D|-----------------|-----------------|-----------------|-----------------|
A|-----------------|-----------------|-----------------|-----------------|
E|-----------------|-----------------|-----------------|-----------------|

e|---0-2-3-5-3-2-0-|-5-3-2-0---0-2-5-|---0-2-3-5-3-2-0-|-5-3-2-0---0-2-5-|
B|-3---------------|---------3-------|-3---------------|---------3-------|
G|-----------------|-----------------|-----------------|-----------------|
D|-----------------|-----------------|-----------------|-----------------|
A|-----------------|-----------------|-----------------|-----------------|
E|-----------------|-----------------|-----------------|-----------------|
Tap to rate this tab
# A B C D E F G H I J K L M N O P Q R S T U V W X Y Z