Song name
# A B C D E F G H I J K L M N O P Q R S T U V W X Y Z

Kissing Promotion Freak - Swansons tab

Composed by :Daniel Romero
Artist: Kissing Promotion Freak

     Intro:
   G   Asus4/B   Cadd9   D
e|-3-|----0----|---3---|-2-|
B|-3-|----3----|---3---|-3-|
G|-0-|----2----|---0---|-2-|
D|-0-|----0----|---2---|-0-|
A|-2-|----2----|---3---|-X-|
E|-3-|----X----|---X---|-X-|

     Chorus: (Intro plays throughout song)
e|-------------------------------------------------|
B|-3---0---1-3-1-0-----0-1-3---3-1-0---0-1-0---1h3-|
G|-------------------2---------------2-------2-----|
D|-------------------------------------------------|
A|-------------------------------------------------|
E|-------------------------------------------------|

     Solo:
e|---------------------------------------------------------------------|
B|-15---12---13-15-13-12------12-13-15---15-13-12----12-13-12----13h15-|
G|-------------------------14---------------------14----------14-------|
D|---------------------------------------------------------------------|
A|---------------------------------------------------------------------|
E|---------------------------------------------------------------------|
Tap to rate this tab
# A B C D E F G H I J K L M N O P Q R S T U V W X Y Z