Song name
# A B C D E F G H I J K L M N O P Q R S T U V W X Y Z

Kitade Nana - Kibou No Kakera tab

-------------------------------------------------------------------------------
			     Nana Kitade - Kibou no Kakera
-------------------------------------------------------------------------------
Tabbed by: beanies520
Email: beanies530@hotmail.com

Tuning: Standard

Intro

e|---------------------------------------------------------------------------|
B|---------------------------------------------------------------------------|
G|--33333333--55555555------------777666-------------------------------------|
D|--33333333--55555555--77777777--777777-------------------------------------|
A|--11111111--33333333--77777777--555555-------------------------------------|
E|--xxxxxxxx--xxxxxxxx--55555555--xxxxxx-------------------------------------|
    ********  ********	 ********  ***

Interlude

e|---------------------------------------------------------------------------|
B|----8------13-----8-----13-------------------------------------------------|(x3)
G|--5-----10------5----10----------------------------------------------------|
D|---------------------------------------------------------------------------|
A|---------------------------------------------------------------------------|
E|---------------------------------------------------------------------------|

Verse

e|---------------------------------------------------------------------------|
B|---------------------------------------------------------------------------|
G|--33--------55------------------77----------33--------55--------77---------|
D|--33--------55--------77--------77----------33--------55--------77---------|
A|--11--------33--------77--------55----------11--------33--------55---------|
E|--xx--------xx--------55--------xx----------xx--------xx--------xx---------|
     *	        *         *	        *           *         *         * 


e|--13-----------13----------------------------------------------------------|
B|-----13-15-13-----13-15-13-------------------------------------------------|
G|------------------------------3-----5-----------7-----3-----5-----7--------|
D|------------------------------3-----5-----7-----7-----3-----5-----7--------|
A|------------------------------1-----3-----7-----5-----1-----3-----5--------|
E|------------------------------x-----x-----5-----x-----x-----x-----x--------|

Bridge

e|---------------------------------------------------------------------------|
B|---------------------------------------------------------------------------|
G|--333-333--55-55-----------77-77-----333-333--55-55--7---------------------|
D|--333-333--55-55--777-777--77-77-----333-333--55-55--7---------------------|
A|--111-111--33-33--777-777--55-55-----111-111--33-33--5---------------------|
E|--xxx-xxx--xx-xx--555-555--xx-xx-----xxx-xxx--xx-xx--x---------------------|
	        ***     **      ***     **         ***     **


e|---------------------------------------------------------------------------|
B|---------------------------------------------------------------------------|
G|--333-333--55-55-----------77-77-----------3-----5--------------------55555|
D|--333-333--55-55--777-777--77-77-----5-----3-----5--------------------55555|
A|--111-111--33-33--777-777--55-55-----5-----1-----3--------------------33333|
E|--xxx-xxx--xx-xx--555-555--xx-xx-----3-----x-----x--------------------xxxxx|
	        ***     **      ***     **  		                            before "Ima"
Chorus (listen to song for strum pattern)

e|---------------------------------------------------------------------------|
B|---------------------------------------------------------------------------|
G|--3-----5-----------7--5--3-----5-----7------------------------------------|
D|--3-----5-----5--7--7--5--3-----5-----7------------------------------------|
A|--1-----3-----5--7--5--3--1-----3-----5------------------------------------|
E|--------------3--5---------------------------------------------------------|



e|---------------------------------------------------------------------------|
B|---------------------------------------------------------------------------|
G|--3-----5-----------7--5--3-----5--7-------5-------------------------------|
D|--3-----5-----5--7--7--5--3-----5--7--5----5-------------------------------|
A|--1-----3-----5--7--5--3--1-----3--5--5----3-------------------------------|
E|--------------3--5--------------------3------------------------------------|
				                                      deshou
| *  Palm mute
| /  slide up
| \  slide down
| h  hammer-on
| p  pull-off
| ~  vibrato
| +  harmonic
| x  Mute note
===============================================================================

Tap to rate this tab
# A B C D E F G H I J K L M N O P Q R S T U V W X Y Z