Song name
# A B C D E F G H I J K L M N O P Q R S T U V W X Y Z

Kitsune 2 - Avast Your Ass tab

MAIN PART:

e|-------------------------------------------------------------------------------------|
B|-----------------------------------------------------7-------------------------------|
G|----------------------------------6---8-----9---8---------6-----8--6---8--6----------|
D|--6------6---8---9-------6---9-----------------------------------------------9-------|
A|-------6-----------------------------------------------------------------------------|
E|-------------------------------------------------------------------------------------|

e|-------------------------------------------------------------------------------------|
B|-------------------------------------------------------------------------------------|
G|-------------------------------------------------------------------------------------|
D|--6----6-6---------------------------------------8------8---9--8---------------------|
A|------------6---7------7--9--7---6---6---7---9-------9-------------9-----------------|
E|-------------------------------------------------------------------------------------|

SPEEDY PART:

e|---------------------------------------------------------------------------------------|
B|---------------------------------------------------------------------------------------|
G|---------------------------------------------------------------------------------------|
D|--6666-6666-66666-2222-2222-2222-2222-----------------------4444-4444-4444-4444--------|
A|-----------------------------------------2222-2222-2222-2222---------------------------|
E|---------------------------------------------------------------------------------------|

CRAZY PART THAT BLOWS YOUR MIND:

e|-------------------------------------------------------------------------------------|
B|-------------------------------------4------4----------------------------------------|
G|-------8------8-------1------1-----4------4-------3------3---------------------------|
D|----689---689-------2------2----14-----14------14-----14-----------------------------|
A|---6-----6---------2------2---24-----24-------1------1-------------------------------|
E|--4-----4-------024----024------------------24-----24--------------------------------|

OCTIVE BASS PART:

G|-----------------------------------------------------------4------4-------4----------|
D|----6------6-------6-----------2-------2-------2-------------------------------------|
A|-------------------------------------------------------2------2-------2-------2------|
E|-4-----4-------4-------4---0-------0-------0-------0---------------------------------|

G|------------------------------|
D|-----4-------4-------4--------|
A|------------------------------|
E|-2-------2-------2-------2----|


That's it! G# E B F# The main part is pretty easy once you get the hang of it. The
speedy part can be kinda hard if your not used to speed picking. The crazy part the blows
your mind is really hard. I can't even play it. It's pretty much sweeping. So good luck with
that. And finally the octave bass part is super easy. It just plays those 4 notes with
the octaves all the way through. Listen to the song and you'll get it. Have fun!!!
Tap to rate this tab
 
# A B C D E F G H I J K L M N O P Q R S T U V W X Y Z