Song name
# A B C D E F G H I J K L M N O P Q R S T U V W X Y Z

Kittie - Trippin tab

     INTRO
D|----------------------------------------------------------------------|
A|----------------------------------------------------------------------|
F|----------------------------------------------------------------------|
C|------------------7----------8----------7----------8~-----------------|
G|-----------x-x--x-7---x-x--x-8---x-x--x-7---x-x--x-8~----/0-----------|
C|-----------x-x--x-7---x-x--x-8---x-x--x-7---x-x--x-8~----/0-----------|

     VERSE PT 1
D|----------------------------------------------------------------------|
A|----------------------------------------------------------------------|
F|----------------------------------------------------------------------|
C|----------------------------------------------------------------------|
G|--------------------0--0--x-x-0--2-2-2--8--9--------------------------|
C|--------------------0--0--x-x-0--2-2-2--8--9--------------------------|

     CHORUS
D|----------------------------------------------------------------------|
A|----------------------------------------------------------------------|
F|----------------------------------------------------------------------|
C|---------------------------------------------------------7*---7*---7*-|
G|----------------------------------------------------------------------|
C|-5-7-7-5-7-7-5-7-7-5-7-7-8-8-8-8-5-7-7-5-7-7-5-7-7-5-7-7--------------|

     BRIDGE
D|----------------------------------------------------------------------|
A|----------------------------------------------------------------------|
F|----------------------------------------------------------------------|
C|---------------0~-----------------------------------------------------|
G|---------------0~----------------------------------------------7*-7*--|
C|---------------0~----------------------------------------------7*-7*--|

D|----------------------------------------------------------------------|
A|----------------------------------------------------------------------|
F|----------------------------------------------------------------------|
C|----------------------------------------------------------------------|
G|------0-7-8-0-7-8-0-7-8-0-7-8-88888---0-7-8-0-7-8-0-7-8-0-7-8-88887---|
C|------0-7-8-0-7-8-0-7-8-0-7-8-88888---0-7-8-0-7-8-0-7-8-0-7-8-88887---|

D|----------------------------------------------------------------------|
A|----------------------------------------------------------------------|
F|----------------------------------------------------------------------|
C|----------------------------------------------------------------------|
G|------0-7-8-0-7-8-0-7-8-0-7-8-88888---0-7-8-0-7-8-0-7-8--5--7--0------|
C|------0-7-8-0-7-8-0-7-8-0-7-8-88888---0-7-8-0-7-8-0-7-8--5--7--0------|
Tap to rate this tab
# A B C D E F G H I J K L M N O P Q R S T U V W X Y Z