Song name
# A B C D E F G H I J K L M N O P Q R S T U V W X Y Z

Kittie - Run Like Hell tab

I realised the tab on here of this song is waaaay off and of course using a Pink
Floyd tabbing, well wrong tuning. You can basically here every part listed here
but I still can't figure out that solo. If I ever do I'll add it.

Song: Run Like Hell
Band: Kittie (covering Pink Floyd)
Album: Oracle
Track: 5
Guitars: 2
Tuning: CGCFAD

Intro Part 1
|--------------------------------------------------------------|
|--------------------------------------------------------------|
|--------------------------------------------------------------|
|1---1-1-1---1-1-1---1-1-1---1-1-1---1-1-1---1-1-1-1-1-0-1-0-1-|
|1---1-1-1---1-1-1---1-1-1---1-1-1---1-1-1---1-1-1-1-1-0-1-0-1-|
|1---1-1-1---1-1-1---1-1-1---1-1-1---1-1-1---1-1-1-1-1-0-1-0-1-|

Main Riff Part 1
|------------------------------------|
|------------------------------------|
|------------------------------------|
|1---11--1-1-1-1-1-11XX1-1-1-1-1-11XX|
|1---11--1-1-1-1-1-11XX1-1-1-1-1-11XX|
|1---11--1-1-1-1-1-11XX1-1-1-1-1-11XX|

Main Riff Part 2
|----------------------------|
|----------------------------|
|----------------------------|
|1-1-1-1-1-11XX1-1-1-1-1-11XX|
|1-1-1-1-1-11XX1-1-1-1-1-11XX|
|1-1-1-1-1-11XX1-1-1-1-1-11XX|

Main Riff Guitar Two (Morgan usually plays this bit herself while
whoever else at the time plays the Main Riff)
|--------------------------------------------------------------|----|
|--------------------------------------------------------------|----|
|11-11-9---------7-7-5---------6-6-4---------8-8-8-9-9---------|-x2-|
|11-11-9---------7-7-5---------6-6-4---------8-8-8-9-9---------|----|
|9--9--7---------5-5-3---------4-4-2---------6-6-6-7-7---------|----|
|--------------------------------------------------------------|----|

Pre-Verse
|--------------------------------------------------------------|
|--------------------------------------------------------------|
|--------------------------------------------------------------|
|4~~~~~--------8~~~~~--------1--11-1-1-1-1-11XX1-1-1-1-1-1-11XX|
|4~~~~~444444448~~~~~888888881--11-1-1-1-1-11XX1-1-1-1-1-1-11XX|
|4~~~~~444444448~~~~~888888881--11-1-1-1-1-11XX1-1-1-1-1-1-11XX|
       ........      ........
Verse (Repeated Notes are palm muted)

|-----------------------------------------------------------------------------------|
|-----------------------------------------------------------------------------------|
|-----------------------------------------------------------------------------------|
|3~~~~~--------4~~~~~-------3~~~~~--------7~~~~~--------5~~~~~--------3~~~~~--------|
|3~~~~~333333334~~~~~44444443~~~~~333333337~~~~~777777775~~~~~555555553~~~~~33333333|
|3~~~~~333333334~~~~~44444443~~~~~333333337~~~~~777777775~~~~~555555553~~~~~33333333|
Tap to rate this tab
 
# A B C D E F G H I J K L M N O P Q R S T U V W X Y Z