Song name
# A B C D E F G H I J K L M N O P Q R S T U V W X Y Z

Kittie - This Too Shall Pass tab

D|--------------------------------------------------|
A|--------------------------------------------------|
F|--4-----------------------------------------------|
C|--4--3--0--4--3--0--1--3--0--1--3--0--4--3--0-----|
G|--2--3--0--4--3--0--1--3--0--1--3--0--4--3--0-----|
C|-----3--0--4--3--0--1--3--0--1--3--0--4--3--0-----|

D|--------------------------------------------------|
A|--------------------------------------------------|
F|--5-4---------------------------------------------|
C|--5-4--3--0--4--3--0--1--3--0--1--3--0--4--3--0---|
G|--3-2--3--0--4--3--0--1--3--0--1--3--0--4--3--0---|
C|-------3--0--4--3--0--1--3--0--1--3--0--4--3--0---| x2


D|---------------------------------------------------------|
A|---------------------------------------------------------|
F|-----------------7--8--7---------------------------------|
C|--0--6--5--3--0--7--8--7--0--6--5--3--0---0-0-0---0-0-0--|
G|--0--6--5--3--0--5--6--5--0--6--5--3--0---0-0-0---0-0-0--|
C|--0--6--5--3--0-----------0--6--5--3--0---0-0-0---0-0-0--| x2

before chorus starts:
D|--------------------------------------------------|
A|--------------------------------------------------|
F|--4-----------------------------------------------|
C|--4--3--0--4--3--0--1--3--0--1--3--0--4--3--0-----|
G|--2--3--0--4--3--0--1--3--0--1--3--0--4--3--0-----|
C|-----3--0--4--3--0--1--3--0--1--3--0--4--3--0-----|

D|-----------------------------------------------------|
A|-----------------------------------------------------|
F|--5--4-----------------------------------------------|
C|--5--4--3--0--4--3--0--1--3---3-3-3-3-3---6-6-6-6-6--|
G|--3--2--3--0--4--3--0--1--3---3-3-3-3-3---6-6-6-6-6--|
C|--------3--0--4--3--0--1--3---3-3-3-3-3---6-6-6-6-6--|


and then the chorus is:
D|--0----------0---------|-----------|-----------|
A|--3----------3---------|-----------|-----------|
F|--2---3--7---2--7--10--|-----------|-----------|
C|--0---3--7---0--7--10--|--3--5--3--|--3--5--7--|
G|--0---1--5---0--5--8---|--3--5--3--|--3--5--7--|
C|--0----------0---------|--3--5--3--|--3--5--7--|

i didn't feel like putting in the strumming patterns but it's pretty easy to get. the 
is pretty repetitive too so it should be easy to piece together :) enjoy.

-Cin
Tap to rate this tab
# A B C D E F G H I J K L M N O P Q R S T U V W X Y Z