Song name
# A B C D E F G H I J K L M N O P Q R S T U V W X Y Z

Kittie - Sorrow I Know tab

Artist: Kittie
Title: Sorrow I Know
Album: In the Black

Tuning: (low to high) C G C F A D

Tabbed by: FireReaverX


Intro
D|------------------------------------------------------------------------|
A|------------------------------------------------------------------------|
F|------------------------------------------------------------------------|
C|-2--2--2--4--4--4--5--4--2--5--8--5--1--1--1--3--3--3--4--3--1--5--8--5-|  2x
G|-2--2--2--2--2--2--2--2--2--5--5--5--1--1--1--1--1--1--1--1--1--5--5--5-|
C|-2--2--2--2--2--2--2--2--2--5--5--5--1--1--1--1--1--1--1--1--1--5--5--5-|


Verse
(Morgan)
D|-------------------------------------------------|
A|-------------------------------------------------|
F|-------------------------------------------------|
C|-------------------------------------------------|
G|---------2-2---------2-2---------2-2---------2-2-|
C|-2-2-5-5-----2-2-5-5-----2-2-5-5-----2-2-5-5-----|
PM . . . .     . . . .     . . . .     . . . .     |
                                                   |
(Tara)                                             |
D|-------------------------------------------------|
A|-------------------------------------------------|
F|---------4-4---------4-4---------4-4---------4-4-|
C|-2-2-5-5-----2-2-5-5-----2-2-5-5-----2-2-5-5-----|
G|-------------------------------------------------|
C|-------------------------------------------------|
PM . . . . . . . . . . . . . . . . . . . . . . . .    
                                                      2x
D|-------------------------------------------------|
A|-------------------------------------------------|
F|-------------------------------------------------|
C|-------------------------------------------------|
G|---------1-1---------1-1---------1-1---------1-1-|
C|-1-1-4-4-----1-1-4-4-----1-1-4-4-----1-1-4-4-----|
PM . . . .     . . . .     . . . .     . . . .     |
                                                   |                                           
D|-------------------------------------------------|
A|-------------------------------------------------|
F|---------3-3---------3-3---------3-3---------3-3-|
C|-1-1-4-4-----1-1-4-4-----1-1-4-4-----1-1-4-4-----|
G|-------------------------------------------------|
C|-------------------------------------------------|
PM . . . . . . . . . . . . . . . . . . . . . . . . 


Chorus
D|------------------------------------------------------------------------------------------------|
A|------------------------------------------------------------------------------------------------|
F|------------------------------------------------------------------------------------------------|
C|-2-2-2-2-2-2-4-4-4-4-4-4-5-5-4-4-2-2-5-5-8-8-5-5-1-1-1-1-1-1-3-3-3-3-3-3-4-4-3-3-1-1-5-5-8-8-5-5|
G|-2-2-2-2-2-2-2-2-2-2-2-2-2-2-2-2-2-2-5-5-5-5-5-5-1-1-1-1-1-1-1-1-1-1-1-1-1-1-1-1-1-1-5-5-5-5-5-5|
C|-2-2-2-2-2-2-2-2-2-2-2-2-2-2-2-2-2-2-5-5-5-5-5-5-1-1-1-1-1-1-1-1-1-1-1-1-1-1-1-1-1-1-5-5-5-5-5-5|

D|------------------------------------------------------------------------------------------------|
A|------------------------------------------------------------------------------------------------|
F|------------------------------------------------------------------------------------------------|
C|-2-2-2-2-2-2-4-4-4-4-4-4-5-5-4-4-2-2-5-5-8-8-5-5-1-1-1-1-1-1-3-3-3-3-3-3-4-4-3-3-1-1-5---8---5--|
G|-2-2-2-2-2-2-2-2-2-2-2-2-2-2-2-2-2-2-5-5-5-5-5-5-1-1-1-1-1-1-1-1-1-1-1-1-1-1-1-1-1-1-5---5---5--|
C|-2-2-2-2-2-2-2-2-2-2-2-2-2-2-2-2-2-2-5-5-5-5-5-5-1-1-1-1-1-1-1-1-1-1-1-1-1-1-1-1-1-1-5---5---5--|


Verse
Chorus


Bridge 
(Morgan)
D|----------------------------------------------------------------------------|
A|----------------------------------------------------------------------------|
F|----------------------------------------------------------------------------|
C|----------------------------------------------------------------------------|
G|-2--------2--------2--------2--------2--------2--------5h6--5--3--5--3--0---|
C|-2--2--2--2--2--2--2--2--2--2--2--2--2--2--2--2--2--2--5h6--5--3--5--3--0---|
PM    .  .     .  .     .  .     .  .     .  .     .  .                       |
                                                                              |
(Tara)                                                                        |
D|----------------------------------------------------------------------------|
A|----------------------------------------------------------------------------|
F|-------------------------------------------------------14h15p14-------------|
C|-------16-------16-------16-------16-------16-------16----------16----16-14-|
G|-14-17----14-17----14-17----14-17----14-17----14-17----------------17-------|
C|----------------------------------------------------------------------------|
                                                                                 2x
D|----------------------------------------------------------------------------|
A|----------------------------------------------------------------------------|
F|----------------------------------------------------------------------------|
C|----------------------------------------------------------------------------|
G|-1--------1--------1--------1--------1--------1--------5h6--5--3--5--3--0---|
C|-1--1--1--1--1--1--1--1--1--1--1--1--1--1--1--1--1--1--5h6--5--3--5--3--0---|
PM    .  .     .  .     .  .     .  .     .  .     .  .                       |
                                                                              |
D|----------------------------------------------------------------------------|
A|----------------------------------------------------------------------------|
F|-------------------------------------------------------13h14p13-------------|
C|-------15-------15-------15-------15-------15-------15----------15----15----|
G|-13-16----13-16----13-16----13-16----13-16----13-16----------------16----16-|
C|----------------------------------------------------------------------------|


Solo 
(Morgan)
D|-------------------------------------------------------------------------|
A|-------------------------------------------------------------------------|
F|-------------------------------------------------------------------------|
C|-2-----2-----2-----4-----4-----4-----5-----4-----2-----5-----8-----5-----|
G|-2-----2-----2-----2-----2-----2-----2-----2-----2-----5-----5-----5-----|
C|-2-----2-----2-----2-----2-----2-----2-----2-----2-----5-----5-----5-----|
                                                                           |
(Tara)                                                                     |
D|----------------14-19-14----------------------------14-19-14-------------|
A|-------------15----------15----------------------15----------15----------|
F|----------16----------------16----------------16----------------16-------|
C|-------16----------------------16----------16----------------------16----|
G|-14-17----------------------------17-14-17----------------------------17-|
C|-------------------------------------------------------------------------|
                                                                                           
D|-------------------------------------------------------------------------|
A|-------------------------------------------------------------------------|
F|-------------------------------------------------------------------------|
C|-1-----1-----1-----3-----3-----3-----4-----3-----1-----5-----8-----5-----|
G|-1-----1-----1-----1-----1-----1-----1-----1-----1-----5-----5-----5-----|
C|-1-----1-----1-----1-----1-----1-----1-----1-----1-----5-----5-----5-----|
                                                                           |
D|----------------13-18-13----------------------------13-18-13-------------|
A|-------------14----------14----------------------14----------14----------|
F|----------15----------------15----------------15----------------15-------|
C|-------15----------------------15----------15----------------------15----|
G|-13-16----------------------------16-13-16----------------------------16-|
C|-------------------------------------------------------------------------|

D|-------------------------------------------------------------------------|
A|-------------------------------------------------------------------------|
F|-------------------------------------------------------------------------|
C|-2-----2-----2-----4-----4-----4-----5-----4-----2-----5-----8-----5-----|
G|-2-----2-----2-----2-----2-----2-----2-----2-----2-----5-----5-----5-----|
C|-2-----2-----2-----2-----2-----2-----2-----2-----2-----5-----5-----5-----|
                                                                           |
D|----------------14-19-14----------------------------14-19-14-------------|
A|-------------15----------15----------------------15----------15----------|
F|----------16----------------16----------------16----------------16-------|
C|-------16----------------------16----------16----------------------16----|
G|-14-17----------------------------17-14-17----------------------------17-|
C|-------------------------------------------------------------------------|
  
D|-------------------------------------------------------------------------|
A|-------------------------------------------------------------------------|
F|-------------------------------------------------------------------------|
C|-------------------------------------------------------------------------|
G|-1--1--1--1--1--1--1--1--1--1--1--1--1--1--1--1--1--1--5--5--5--5--5--5--|
C|-1--1--1--1--1--1--1--1--1--1--1--1--1--1--1--1--1--1--5--5--5--5--5--5--|
PM .  .  .  .  .  .  .  .  .  .  .  .  .  .  .  .  .  .  .  .  .  .  .  .  |
                                                                           |
D|----------------13-18-13----------------------------13-18-13-------------|
A|-------------14----------14----------------------14----------14----------|
F|----------15----------------15----------------15----------------15-------|
C|-------15----------------------15----------15----------------------15----|
G|-13-16----------------------------16-13-16----------------------------16-|
C|-------------------------------------------------------------------------|


Chorus
(Morgan)
D|-------------------------------------------------------------------------|
A|-------------------------------------------------------------------------|
F|-------------------------------------------------------------------------|
C|-2--2--2--2--2--2--4--4--4--4--4--4--5--5--4--4--2--2--5--5--8--8--5--5--|
G|-2--2--2--2--2--2--2--2--2--2--2--2--2--2--2--2--2--2--5--5--5--5--5--5--|
C|-2--2--2--2--2--2--2--2--2--2--2--2--2--2--2--2--2--2--5--5--5--5--5--5--|
                                                                           |
(Tara)                                                                     |
D|----------------14-19-14----------------------------14-19-14-------------|
A|-------------15----------15----------------------15----------15----------|
F|----------16----------------16----------------16----------------16-------|
C|-------16----------------------16----------16----------------------16----|
G|-14-17----------------------------17-14-17----------------------------17-|
C|-------------------------------------------------------------------------|
                                                                              2x
D|-------------------------------------------------------------------------|
A|-------------------------------------------------------------------------|
F|-------------------------------------------------------------------------|
C|-1--1--1--1--1--1--3--3--3--3--3--3--4--4--3--3--1--1--5--5--8--8--5--5--|
G|-1--1--1--1--1--1--1--1--1--1--1--1--1--1--1--1--1--1--5--5--5--5--5--5--|
C|-1--1--1--1--1--1--1--1--1--1--1--1--1--1--1--1--1--1--5--5--5--5--5--5--|
                                                                           |
D|----------------13-18-13----------------------------13-18-13-------------|
A|-------------14----------14----------------------14----------14----------|
F|----------15----------------15----------------15----------------15-------|
C|-------15----------------------15----------15----------------------15----|
G|-13-16----------------------------16-13-16----------------------------16-|
C|-------------------------------------------------------------------------|


Outro
(Morgan)
D|-------------------------------------------------------------------------|
A|-------------------------------------------------------------------------|
F|-------------------------------------------------------------------------|
C|-2-----------------------------------------------------5-----------------|
G|-2-----------------------------------------------------5-----------------|
C|-2-----------------------------------------------------5-----------------|
                                                                           |
(Tara)                                                                     |
D|----------------14-19-14----------------------------14-19-14-------------|
A|-------------15----------15----------------------15----------15----------|
F|----------16----------------16----------------16----------------16-------|
C|-------16----------------------16----------16----------------------16----|
G|-14-17----------------------------17-14-17----------------------------17-|
C|-------------------------------------------------------------------------|
                                                                                                
D|-------------------------------------------------------------------------|
A|-------------------------------------------------------------------------|
F|-------------------------------------------------------------------------|
C|-1-----------------------------------------------------------------------|
G|-1-----------------------------------------------------------------------|
C|-1-----------------------------------------------------------------------|
                                                                           |
D|----------------13-18-13----------------------------13-18~---------------|
A|-------------14----------14----------------------14----------------------|
F|----------15----------------15----------------15-------------------------|
C|-------15----------------------15----------15----------------------------|
G|-13-16----------------------------16-13-16-------------------------------|
C|-------------------------------------------------------------------------|


| PM palm mute
| h  hammer-on
| p  pull-off
| b  bend
| /  slide up
| \  slide down
| ~  vibrato
============================================================================
Tap to rate this tab
# A B C D E F G H I J K L M N O P Q R S T U V W X Y Z