Song name
# A B C D E F G H I J K L M N O P Q R S T U V W X Y Z

Kittie - Sleepwalking tab

-------------------------------------------------------------------------------
			     SLEEPWALKING - Kittie
-------------------------------------------------------------------------------
Tabbed by: Kiera
Email: evanescenceguitarist@yahoo.com

Tuning:Dropped C


Intro
Morgan
D|-------------------------------------------------------------------------|
A|-------------------------------------------------------------------------|
F|-------------------------------------------------------------------------|
C|-------------------------------------------------------------------------|
G|-1-----------1-1---------------5-----------5-5---------------------------|
C|-1-----------1-1---------------5-----------5-5---------------------------|
PM             ___                           ___
                                                                           
Tara
D|-------------------------------------------------------------------------|
A|--------------------------------------------(x3)-------------------------|
F|--------------(x3)----------------7-8---7-8------------------------------|
C|---7-8---7-8--------8-7-5-7-5---5-----5----------------------------------|
G|-5-----5----------5--------------------------5-5-5-5-5+------------------|
C|-------------------------------------------------------------------------|

Morgan
D|-------------------------------------------------------------------------|
A|-------------------------------------------------------------------------|
F|-------------------------------------------------------------------------|
C|-------------------------------------------------------------------------|
G|-1-1-1-1-1-1-1-1-1-3-3-3-------5-5-5-5-5-5-5-5-5-0-0-0-------------------|
C|-1-1-1-1-1-1-1-1-1-3-3-3-------5-5-5-5-5-5-5-5-5-0-0-0-------------------|

Tara
D|-------------------------------------------------------------------------|
A|--------------------------------------------(x3)-------------------------|
F|--------------(x3)----------------7-8---7-8------------------------------|
C|---7-8---7-8--------8-7-5-7-5---5-----5----------------------------------|
G|-5-----5----------5--------------------------5-5-5-5-5-5-----------------|
C|-------------------------------------------------------------------------|

Morgan
D|-------------------------------------------------------------------------|
A|-------------------------------------------------------------------------|
F|-------------------------------------------------------------------------|
C|-------------------------------------------------------------------------|
G|-1-1-1-1-1-1-1-1-1-3-3-3-------5-5-5-5-5-5-5-5-5-0-0-0-------------------|
C|-1-1-1-1-1-1-1-1-1-3-3-3-------5-5-5-5-5-5-5-5-5-0-0-0-------------------|


Tara
D|-------------------------------------------------------------------------|
A|--------------------------------------------(x3)-------------------------|
F|--------------(x3)----------------7-8---7-8------------------------------|
C|---7-8---7-8--------8-7-5-7-5---5-----5----------------------------------|
G|-5-----5----------5--------------------------5--------6------------------|
C|-------------------------------------------------------------------------|

Verse
D|-------------------------------------------------------------------------|
A|-------------------------------------------------------------------------|
F|-------------------------------------------------------------------------|
C|------------(x4)-------------(x4)------------(x4)------------(x2)--------|
G|--1-1-1-111------5-5-5-5-555------1-1-1-1-111-----5-5-5-5-555----5-5-----|
C|--1-1-1-111------5-5-5-5-555------1-1-1-1-111-----5-5-5-5-555----5-5-----|
PM  _________      ___________      ___________     ___________    ___

Break
Tara
D|-----------------------------|
A|-----------------------------|
F|-----------------------------|
C|----8-7-5-7-5---8-7-5-7-8----|
G|--5-----------5--------------|
C|-----------------------------|


Chorus
Morgan
D|-------------------------------------------------------------------------|
A|-------------------------------------------------------------------------|
F|-------------------------------------------------------------------------|
C|-------------------------------------------------------------------------|
G|-1-1-1-1-1-1-1-1-1-3-3-3-------5-5-5-5-5-5-5-5-5-0-0-0-------------------|
C|-1-1-1-1-1-1-1-1-1-3-3-3-------5-5-5-5-5-5-5-5-5-0-0-0-------------------|

Tara
D|-------------------------------------------------------------------------|
A|--------------------------------------------(x3)-------------------------|
F|--------------(x3)----------------7-8---7-8------------------------------|
C|---7-8---7-8--------8-7-5-7-5---5-----5----------------------------------|
G|-5-----5----------5--------------------------5---5---5-------------------|
C|-------------------------------------------------------------------------|

Morgan
D|-------------------------------------------------------------------------|
A|-------------------------------------------------------------------------|
F|-------------------------------------------------------------------------|
C|-------------------------------------------------------------------------|
G|-1-1-1-1-1-1-1-1-1-3-3-3-------5-5-5-5-5-5-5-5-5-0-0-0-------------------|
C|-1-1-1-1-1-1-1-1-1-3-3-3-------5-5-5-5-5-5-5-5-5-0-0-0-------------------|


Tara
D|-------------------------------------------------------------------------|
A|--------------------------------------------(x3)-------------------------|
F|--------------(x3)----------------7-8---7-8------------------------------|
C|---7-8---7-8--------8-7-5-7-5---5-----5----------------------------------|
G|-5-----5----------5--------------------------5---------------------------|
C|-------------------------------------------------------------------------|

Verse 
Break
Chorus

Bridge
Morgan
D|-------------------------------------------------------------------------|
A|-------------------------------------------------------------------------|
F|-------------------------------------------------------------------------|
C|-------------------------------------------------------------------------|
G|-1---5---1---5---1---5---1---5-------------------------------------------|
C|-1---5---1---5---1---5---1---5-5-5-5-5-5-5-5-5-5-5-5-5-5-5-5-5-5-5-------|
PM                               ___________________________________

Tara
D|-------------------------------------------------------------------------|
A|----------------17------------------------------17-----------------------|
F|-------------------15--12---------------------------15--12--(12)br-------|
C|--12-13-12-13--------------15------12-13-12-13---------------------------|
G|-------------------------------------------------------------------------|
C|-------------------------------------------------------------------------|

D|-------------------------------------------------------------------------|
A|---------------17----------------------------17----17----17----17\-------|
F|-------------------15--12-----------------------15----15----15-----------|
C|--12-13-12-13--------------15---12-13-12-13------------------------------|
G|-------------------------------------------------------------------------|
C|-------------------------------------------------------------------------|

Chorus
Morgan
D|-------------------------------------------------------------------------|
A|-------------------------------------------------------------------------|
F|-------------------------------------------------------------------------|
C|-------------------------------------------------------------------------|
G|-1-1-1-1-1-1-1-1-1-3-3-3-------5-5-5-5-5-5-5-5-5-0-0-0-------------------|
C|-1-1-1-1-1-1-1-1-1-3-3-3-------5-5-5-5-5-5-5-5-5-0-0-0-------------------|

Tara
D|-------------------------------------------------------------------------|
A|--------------------------------------------(x3)-------------------------|
F|--------------(x3)----------------7-8---7-8------------------------------|
C|---7-8---7-8--------8-7-5-7-5---5-----5----------------------------------|
G|-5-----5----------5--------------------------5---5---5-------------------|
C|-------------------------------------------------------------------------|

Morgan
D|-------------------------------------------------------------------------|
A|-------------------------------------------------------------------------|
F|-------------------------------------------------------------------------|
C|-------------------------------------------------------------------------|
G|-1-1-1-1-1-1-1-1-1-3-3-3-------5-5-5-5-5-5-5-5-5-0-0-0-------------------|
C|-1-1-1-1-1-1-1-1-1-3-3-3-------5-5-5-5-5-5-5-5-5-0-0-0-------------------|


Tara
D|-------------------------------------------------------------------------|
A|--------------------------------------------(x3)-------------------------|
F|--------------(x3)----------------7-8---7-8------------------------------|
C|---7-8---7-8--------8-7-5-7-5---5-----5----------------------------------|
G|-5-----5----------5--------------------------5---5---5-------------------|
C|-------------------------------------------------------------------------|

Morgan
D|-------------------------------------------------------------------------|
A|-------------------------------------------------------------------------|
F|-------------------------------------------------------------------------|
C|-------------------------------------------------------------------------|
G|-1-1-1-1-1-1-1-1-1-3-3-3-------5-5-5-5-5-5-5-5-5-0-0-0-------------------|
C|-1-1-1-1-1-1-1-1-1-3-3-3-------5-5-5-5-5-5-5-5-5-0-0-0-------------------|


Tara
D|-------------------------------------------------------------------------|
A|--------------------------------------------(x3)-------------------------|
F|--------------(x3)----------------7-8---7-8------------------------------|
C|---7-8---7-8--------8-7-5-7-5---5-----5----------------------------------|
G|-5-----5----------5--------------------------5---5---5-------------------|
C|-------------------------------------------------------------------------|

Morgan
D|-------------------------------------------------------------------------|
A|-------------------------------------------------------------------------|
F|-------------------------------------------------------------------------|
C|-------------------------------------------------------------------------|
G|-1-1-1-1-1-1-1-1-1-3-3-3-------5-5-5-5-5-5-5-5-5-------------------------|
C|-1-1-1-1-1-1-1-1-1-3-3-3-------5-5-5-5-5-5-5-5-5-------------------------|


Tara
D|-------------------------------------------------------------------------|
A|--------------------------------------------(x3)-------------------------|
F|--------------(x3)----------------7-8---7-8------------------------------|
C|---7-8---7-8--------8-7-5-7-5---5-----5----------------------------------|
G|-5-----5----------5------------------------------------------------------|
C|-------------------------------------------------------------------------|


Outro/Ending
Morgan
D|---------------|
A|---------------|
F|---------------|
C|---------------|
G|--0------1-----|
C|--0------1-----|

Tara
D|---------------|
A|---------------|
F|---------------|
C|---------------|
G|--5------6-----|
C|---------------|

Thanks for looking :)

************************************

| /   slide up
| \   slide down
| h   hammer-on
| p   pull-off
| ~   vibrato
| +   harmonic
| x   Mute note
| b   Bend
| pb  Pre-bend
| br  Bend release
| pbr Pre-bend release
| brb Bend release bend

************************************
Tap to rate this tab
# A B C D E F G H I J K L M N O P Q R S T U V W X Y Z