Song name
# A B C D E F G H I J K L M N O P Q R S T U V W X Y Z

Kittie - What I Always Wanted tab

Band- Kittie
Song- What I Always Wanted
Tuning- C-G-C-F-A-d
Transcribed & tabbed by: Alex Pérez
Email: jagomx@hotmail.com


p  =  pull off
/  =  slide up
.  =  palm mute




0:00 Intro
|-------------------------------------|
|-------------------------------------|
|-------------------------------------|
|-------------------------------------| 
|-5-5-5-6---3--5-5-5-6---3------------|
|-3-3-3-4-0-1--3-3-3-4-0-1------------|


0:23 Verse1
|-------------------------------------|
|-------------------------------------|
|-------------------------------------|
|-------------------------------------|
|-6-6-6-6-6-6-6-6---5-5-5-5-5-5-5-5---|
|-4-4-4-4-4-4-4-4-0-3-3-3-3-3-3-3-3---|


0:37 Intro
|-------------------------------------|
|-------------------------------------|
|-------------------------------------|
|-------------------------------------| 
|-5-5-5-6---3--5-5-5-6---3------------|
|-3-3-3-4-0-1--3-3-3-4-0-1------------|


0:44 Verse1
|-------------------------------------|
|-------------------------------------|
|-------------------------------------|
|-------------------------------------|
|-6-6-6-6-6-6-6-6---5-5-5-5-5-5-5-5---|
|-4-4-4-4-4-4-4-4-0-3-3-3-3-3-3-3-3---|


1:13 Chorus
|---------------------------------------------------------------|
|---------------------------------------------------------------|
|---------------------------------------------------------------|
|---------------------------------------------------------------|
|------6/5-5-5-5------6/5-5-5-5-------6/5-5-5-5p4-4-4-4/9-9-9-9-|
|--0-0-4/3-3-3-3--0-0-4/3-3-3-3--0-0--4/3-3-3-3p2-2-2-2/7-7-7-7-|
   ...            ...            ...

1:54
Bass Riff


2:00 Verse1
|-------------------------------------|
|-------------------------------------|
|-------------------------------------|
|-------------------------------------|
|-6-6-6-6-6-6-6-6---5-5-5-5-5-5-5-5---|
|-4-4-4-4-4-4-4-4-0-3-3-3-3-3-3-3-3---|


2:29 Chorus
|---------------------------------------------------------------|
|---------------------------------------------------------------|
|---------------------------------------------------------------|
|---------------------------------------------------------------|
|------6/5-5-5-5------6/5-5-5-5-------6/5-5-5-5p4-4-4-4/9-9-9-9-|
|--0-0-4/3-3-3-3--0-0-4/3-3-3-3--0-0--4/3-3-3-3p2-2-2-2/7-7-7-7-|
   ...            ...            ...


3:09  Outro

|-------------------------------------|
|-------------------------------------|
|-------------------------------------|
|-------------------------------------|
|------6-5-6-7-------6-5-6-7----------|
|--0-0-4-3-4-5--0-0--4-3-4-5----------|
   ...          ...

3:28 Chorus
|---------------------------------------------------------------|
|---------------------------------------------------------------|
|---------------------------------------------------------------|
|---------------------------------------------------------------|
|------6/5-5-5-5------6/5-5-5-5-------6/5-5-5-5p4-4-4-4/9-9-9-9-|
|--0-0-4/3-3-3-3--0-0-4/3-3-3-3--0-0--4/3-3-3-3p2-2-2-2/7-7-7-7-|
   ...            ...            ...
Tap to rate this tab
 
# A B C D E F G H I J K L M N O P Q R S T U V W X Y Z