Song name
# A B C D E F G H I J K L M N O P Q R S T U V W X Y Z

Kittie - Paperdoll tab

This is a near perfect tabbing of the original/heavy/remix version of Paperdoll.
The one sung by Tanya Candler: original bass player of Kittie.

Tuning: CGCFAD

Bass Intro for 2 measures then:

D--------------------------------------------|
A--------------------------------------------|
F--------------------------------------------|
C-2-222-22-3-333-553--2-222-22-3-333-543-----|
G-2-222-22-3-333-553--2-222-22-3-333-543-----|
C-2-222-22-3-333-553--2-222-22-3-333-543-----| 4x
I look at her in that paper dress I wonder why she won't burn
She's just a paperdoll that's all just a paperdoll

D---------------------------------------------------|
A---------------------------------------------------|
F---------------------------------------------------|
C-2--2--2---3--3--5-5-3---2--2--2---3--3--5-4-3-----|
G-2--2--2---3--3--5-5-3---2--2--2---3--3--5-4-3-----|
C-2--2--2---3--3--5-5-3---2--2--2---3--3--5-4-3-----| 2x
I dress her up she knocks me down
I dress her up she knocks me... down

D--------------------------------------------|
A--------------------------------------------|
F--------------------------------------------|
C-2-222-22-3-333-553--2-222-22-3-333-543-----|
G-2-222-22-3-333-553--2-222-22-3-333-543-----|
C-2-222-22-3-333-553--2-222-22-3-333-543-----| 4x
They try her on for size she fits nice one size fits all
They try her on for size she fits nice one size fits all

Chorus
D-------------------------------------------------------|
A-------------------------------------------------------|
F-------------------------------------------------------|
C-0/6-6-6-0~--0/6-6-6-0-77------------------------------|
G-0/6-6-6-0~--0/6-6-6-0-77------------------------------|
C-0/6-6-6-0~--0/6-6-6-0-77------------------------------| 4x
Now her soul is dead
Now her bodies raw
You can numb her pain

Bass solo (bass plays verse) wait 2 measures

Verse 2
D---------------------------------------------------|
A---------------------------------------------------|
F---------------------------------------------------|
C-2--2--2---3--3--5-5-3---2--2--2---3--3--5-4-3-----|
G-2--2--2---3--3--5-5-3---2--2--2---3--3--5-4-3-----|
C-2--2--2---3--3--5-5-3---2--2--2---3--3--5-4-3-----| 2x
Watch the blood run down her face but don't take notice
Watch the blood run down her arms please don't take notice

D--------------------------------------------|
A--------------------------------------------|
F--------------------------------------------|
C-2-222-22-3-333-553--2-222-22-3-333-543-----|
G-2-222-22-3-333-553--2-222-22-3-333-543-----|
C-2-222-22-3-333-553--2-222-22-3-333-543-----| 4x
I know you have her soul I see it in your eyes
She knows you have her soul she see's it in your eyes

Chorus
D-------------------------------------------------------|
A-------------------------------------------------------|
F-------------------------------------------------------|
C-0/6-6-6-0~--0/6-6-6-0-77------------------------------|
G-0/6-6-6-0~--0/6-6-6-0-77------------------------------|
C-0/6-6-6-0~--0/6-6-6-0-77------------------------------| 4x
Now her soul is dead
Now her bodies raw
You can numb her pain

Bridge (I lost count of how many times)
D-------------------------------------------------------|
A-------------------------------------------------------|
F-------------------------------------------------------|
C-1-00-0-1-00-0-1110------------------------------------|
G-1-00-0-1-00-0-1110------------------------------------|
C-1-00-0-1-00-0-1110------------------------------------|
You wants you to eat her pain she wants you to take her remains
She wants you to eat her pain she wants you to take her remains
C-1-00-0-1-00-0-|
G-1-00-0-1-00-0-|
C-1-00-0-1-00-0-| Play this the last time

Insane clown noise then:

Chorus
D-------------------------------------------------------|
A-------------------------------------------------------|
F-------------------------------------------------------|
C-0/6-6-6-0~--0/6-6-6-0-77------------------------------|
G-0/6-6-6-0~--0/6-6-6-0-77------------------------------|
C-0/6-6-6-0~--0/6-6-6-0-77------------------------------| 4x
Now her soul is dead
Now her bodies raw
You can numb her pain
Tap to rate this tab
# A B C D E F G H I J K L M N O P Q R S T U V W X Y Z