Song name
# A B C D E F G H I J K L M N O P Q R S T U V W X Y Z

Kittie - We Are The Lamb tab

-------------------------------------------------------------------------------
			     WE ARE THE LAMB - Kittie
-------------------------------------------------------------------------------
Tabbed by: Kiera
Email: evanescenceguitarist@yahoo.com

Tuning: Drop C

Morgan = Rhythm (left pan)
Tara = Lead (right pan)
Tara SOLO


***Since I made a guitar pro of this song a while back, I decided to make a
guitar tab for those that dont have guitar pro.


Intro/Chorus
  Morgan
D|---------------------------------------------------------------------------|
A|---------------------------------------------------------------------------|
F|---------------------------------------------------------------------------|
C|-----------------3-2----------------------------3-2----------5-2-----------|
G|-2h3p2---2-----------3-2---2------2h3p2---2---------3-2---2----------------|
C|-------5-2---------------5-2------------5-2-------------5-2----------------|
 |
 |Tara
D|---------------------------------------------------------------------------|
A|---------------------------------------------------------------------------|
F|---------------------------------------------------------------------------|
C|---------------------------------------------------------------------------|
G|---------------------------------------------------------------------------|
C|---------------------------------------------------------------------------|


  Morgan                                                                   x2
D|---------------------------------------------------------------------------|
A|---------------------------------------------------------------------------|
F|---------------------------------------------------------------------------|
C|-----------------3-2----------------------------3-2----------5-2-----------|
G|-2h3p2---2-----------3-2---2------2h3p2---2---------3-2---2----------------|
C|-------5-2---------------5-2------------5-2-------------5-2----------------|
 |
 |Tara                                                                     x2
D|---------------------------------------------------------------------------|
A|---------------------------------------------------------------------------|
F|---------------------------------------------------------------------------|
C|-----------------10-9----------------------------10-9-----------12-9-------|
G|-9h10p9---------------10-9---------9h10p9-------------10-9-----------------|
C|--------12-9---------------12-9-----------12-9-------------12-9------------|


  Morgan
D|---------------------------------------------------------------------------|
A|---------------------------------------------------------------------------|
F|---------------------------------------------------------------------------|
C|-----------------3-2----------------------------3-2------------------------|
G|-2h3p2---2-----------3-2---2------2h3p2---2---------3-2---2-3-3------------|
C|-------5-2---------------5-2------------5-2-------------5-2-3-3------------|
 |PM                                                          ___
 |Tara
D|---------------------------------------------------------------------------|
A|---------------------------------------------------------------------------|
F|---------------------------------------------------------------------------|
C|-----------------10-9----------------------------10-9----------------------|
G|-9h10p9---------------10-9---------9h10p9-------------10-9------3-3--------|
C|--------12-9---------------12-9-----------12-9-------------12-9-3-3--------|
  PM                                                              ___


Verse
  Morgan                                                                   x2
D|---------------------------------------------------------------------------|
A|---------------------------------------------------------------------------|
F|-4--------4------8--------8-----7--------7-----10-------10-----------------|
C|-2--------2------6--------6-----5--------5-----8--------8------------------|
G|-2--------2------6--------6-----5--------5-----8--------8-5-5--------------|
C|----2-2-2---2-2-----6-6-6---6-6----5-5-5---5-5----8-8-8---5-5--------------|
 |PM  _____   ___     _____   ___    _____   ___    _____   ___
 |Tara                                                                     x2
D|---------------------------------------------------------------------------|
A|---------------------------------------------------------------------------|
F|-4--------4------8--------8-----7--------7-----10-------10-----------------|
C|-2--------2------6--------6-----5--------5-----8--------8------------------|
G|-2--------2------6--------6-----5--------5-----8--------8-5-5--------------|
C|----2-2-2---2-2-----6-6-6---6-6----5-5-5---5-5----8-8-8---5-5--------------|
 |PM  _____   ___     _____   ___    _____   ___    _____   ___


  Morgan
D|---------------------------------------------------------------------------|
A|---------------------------------------------------------------------------|
F|---------------------------------------------------------------------------|
C|----------8-----------------8-----------------8----------------------------|
G|-7-----------7-----7-----------7-----7-----------7-----7--8-8-8-8-8-8-8----|
C|-7--7-777-------9--7--7-777-------9--7--7-777-------9--7--8-8-8-8-8-8-8----|
 |PM  _____             _____             _____             _____________
 |Tara
D|---------------------------------------------------------------------------|
A|---------------------------------------------------------------------------|
F|----------10---------------10---------------10-----------------------------|
C|-------------9----------------9----------------9---------------------------|
G|-7-------------7--7-------------7--7-------------7--7--8-8-8-8-8-8-8-------|
C|-7--7-777---------7--7-777---------7--7-777---------7--8-8-8-8-8-8-8-------|
 |PM  _____            _____            _____            _____________



Chorus
  Morgan
D|---------------------------------------------------------------------------|
A|---------------------------------------------------------------------------|
F|---------------------------------------------------------------------------|
C|-----------------3-2----------------------------3-2----------5-2-----------|
G|-2h3p2---2-----------3-2---2------2h3p2---2---------3-2---2----------------|
C|-------5-2---------------5-2------------5-2-------------5-2----------------|
 |
 |Tara
D|---------------------------------------------------------------------------|
A|---------------------------------------------------------------------------|
F|---------------------------------------------------------------------------|
C|-----------------10-9----------------------------10-9-----------12-9-------|
G|-9h10p9---------------10-9---------9h10p9-------------10-9-----------------|
C|--------12-9---------------12-9-----------12-9-------------12-9------------|


  Morgan
D|---------------------------------------------------------------------------|
A|---------------------------------------------------------------------------|
F|---------------------------------------------------------------------------|
C|-----------------3-2----------------------------3-2------------------------|
G|-2h3p2---2-----------3-2---2------2h3p2---2---------3-2---2-3-3------------|
C|-------5-2---------------5-2------------5-2-------------5-2-3-3------------|
 |PM                                                          ___
 |Tara
D|---------------------------------------------------------------------------|
A|---------------------------------------------------------------------------|
F|---------------------------------------------------------------------------|
C|-----------------10-9----------------------------10-9----------------------|
G|-9h10p9---------------10-9---------9h10p9-------------10-9------3-3--------|
C|--------12-9---------------12-9-----------12-9-------------12-9-3-3--------|
  PM                                                              ___


Verse

Chorus


Bridge
  Morgan
D|---------------------------------------------------------------------------|
A|---------------------------------------------------------------------------|
F|---------------------------------------------------------------------------|
C|-----------------3-2----------------------------3-2----------5-2-----------|
G|-2h3p2---2-----------3-2---2------2h3p2---2---------3-2---2----------------|
C|-------5-2---------------5-2------------5-2-------------5-2----------------|
 |
 |Tara
D|---------------------------------------------------------------------------|
A|---------------------------------------------------------------------------|
F|---------------------------------------------------------------------------|
C|---------------------------------------------------------------------------|
G|-2-------------------------------------------------------------------------|
C|-2-------------------------------------------------------------------------|


  Morgan
D|---------------------------------------------------------------------------|
A|---------------------------------------------------------------------------|
F|---------------------------------------------------------------------------|
C|-----------------3-2----------------------------3-2----------5-2-----------|
G|-2h3p2---2-----------3-2---2------2h3p2---2---------3-2---2----------------|
C|-------5-2---------------5-2------------5-2-------------5-2----------------|
 |
 |Tara
D|---------------------------------------------------------------------------|
A|---------------------------------------------------------------------------|
F|---------------------------------------------------------------------------|
C|-----------------10-9----------------------------10-9-----------12-9-------|
G|-9h10p9---------------10-9---------9h10p9-------------10-9-----------------|
C|--------12-9---------------12-9-----------12-9-------------12-9------------|



Solo - Tara uses Wah effect, therefore it is harder to be sure about all
of the notes.
  Morgan
D|---------------------------------------------------------------------------|
A|---------------------------------------------------------------------------|
F|---------------------------------------------------------------------------|
C|-----------------3-2-------------------------------3-2---------5-2---------|
G|-2h3p2---2-2-2-2-----3-2---2-2-2-2-2h3p2---2-2-2-2-----3-2---2-------------|
C|-------5-2-2-2-2---------5-2-2-2-2-------5-2-2-2-2---------5-2-------------|
 |PM         _____             _____           _____
 |Tara
D|---------------------------------------------------------------------------|
A|---------------------------------------------------------------------------|
F|---------------------------------------------------------------------------|
C|-----------------3-2-------------------------------3-2---------5-2---------|
G|-2h3p2---2-2-2-2-----3-2---2-2-2-2-2h3p2---2-2-2-2-----3-2---2-------------|
C|-------5-2-2-2-2---------5-2-2-2-2-------5-2-2-2-2---------5-2-------------|
 |PM         _____             _____           _____
 |SOLO (Full bends)                                   (14 15 14 12 14b)
D|---------------------------------------------------------------------------|
A|-15b----------------------15br-12------------------------------------------|
F|-14b------------------------------15-14---12-14--12--1415141214b-12--------|
C|--------------------------------------------------------------------14-----|
G|---------------------------------------------------------------------------|
C|---------------------------------------------------------------------------|


  Morgan
D|---------------------------------------------------------------------------|
A|---------------------------------------------------------------------------|
F|---------------------------------------------------------------------------|
C|-----------------3-2-------------------------------3-2---------5-2---------|
G|-2h3p2---2-2-2-2-----3-2---2-2-2-2-2h3p2---2-2-2-2-----3-2---2-------------|
C|-------5-2-2-2-2---------5-2-2-2-2-------5-2-2-2-2---------5-2-------------|
 |PM         _____             _____           _____
 |Tara
D|---------------------------------------------------------------------------|
A|---------------------------------------------------------------------------|
F|---------------------------------------------------------------------------|
C|-----------------3-2-------------------------------3-2---------5-2---------|
G|-2h3p2---2-2-2-2-----3-2---2-2-2-2-2h3p2---2-2-2-2-----3-2---2-------------|
C|-------5-2-2-2-2---------5-2-2-2-2-------5-2-2-2-2---------5-2-------------|
 |PM         _____             _____           _____
 |SOLO
D|---------------------------------------------------------------------------|
A|---------------------------------------------------------------------------|
F|-sh----------sh----------12h14p12----12h14p12-------14-12-12------------14-|
C|-14-12-12-15-14-12-14-12----------14----------14-14----------12--14--14----|
G|---------------------------------------------------------------------------|
C|---------------------------------------------------------------------------|
(Full bend)
------------------------|
------------------------|
-12---------------------|
----15-14-15b----\--14--|
------------------------|
------------------------|


  Morgan
D|---------------------------------------------------------------------------|
A|---------------------------------------------------------------------------|
F|---------------------------------------------------------------------------|
C|----------8-----------------8-----------------8----------------------------|
G|-7-----------7-----7-----------7-----7-----------7-----7--8-8-8-8-8-8------|
C|-7--7-777-------9--7--7-777-------9--7--7-777-------9--7--8-8-8-8-8-8------|
 |PM  _____             _____             _____             ___________
 |Tara
D|---------------------------------------------------------------------------|
A|---------------------------------------------------------------------------|
F|----------10---------------10---------------10-----------------------------|
C|-------------9----------------9----------------9---------------------------|
G|-7-------------7--7-------------7--7-------------7--7--8-8-8-8-8-8---------|
C|-7--7-777---------7--7-777---------7--7-777---------7--8-8-8-8-8-8---------|
 |PM  _____            _____            _____            ___________
 |SOLO (half bend) >
D|--------------------------------------------(full)-------------------------|
A|-------------------/10--9-10-12-15b-12-15b-12-15b--15pbr-12----13p12-------|
F|-----8-9-8-8h9p8-8--------------------------------------------------14p12--|
C|-/7------------------------------------------------------------------------|
G|---------------------------------------------------------------------------|
C|---------------------------------------------------------------------------|
(Full bends)
--------------15--------|
----------15b----15b----|
-14p12------------------|
------14----------------|
------------------------|
------------------------|


  Morgan
D|---------------------------------------------------------------------------|
A|---------------------------------------------------------------------------|
F|---------------------------------------------------------------------------|
C|----------8-----------------8-----------------8----------------------------|
G|-7-----------7-----7-----------7-----7-----------7-----7--8-8-8-8-8-8-8----|
C|-7--7-777-------9--7--7-777-------9--7--7-777-------9--7--8-8-8-8-8-8-8----|
 |PM  _____             _____             _____             _____________
 |Tara
D|---------------------------------------------------------------------------|
A|---------------------------------------------------------------------------|
F|----------10---------------10---------------10-----------------------------|
C|-------------9----------------9----------------9---------------------------|
G|-7-------------7--7-------------7--7-------------7--7--8-8-8-8-8-8-8-------|
C|-7--7-777---------7--7-777---------7--7-777---------7--8-8-8-8-8-8-8-------|
 |PM  _____            _____            _____            _____________
 |SOLO
D|-12h15p12-----------------------------------------------------------15-----|
A|----------15-12h15p12----------------------------------------15/17---------|
F|----------------------15-141214h15p14--12-----12-14-12-14/16---------------|
C|------------------------------------------14-------------------------------|
G|---------------------------------------------------------------------------|
C|---------------------------------------------------------------------------|
(half bend)
-------------------------------------------------|
-------------------------------------------------|
--------------------------------------12----12---|
-12/14----12----14--(14)b-------12-14----14------|
-------12----12-----------12-14------------------|
-------------------------------------------------|


Break (slow full bend)
--------|
-16b----|
-15b----|
--------|
--------|
--------|



Outro/Chorus
  Morgan
D|---------------------------------------------------------------------------|
A|---------------------------------------------------------------------------|
F|---------------------------------------------------------------------------|
C|-----------------3-2----------------------------3-2----------5-2-----------|
G|-2h3p2---2-----------3-2---2------2h3p2---2---------3-2---2----------------|
C|-------5-2---------------5-2------------5-2-------------5-2----------------|
 |
 |Tara
D|---------------------------------------------------------------------------|
A|---------------------------------------------------------------------------|
F|---------------------------------------------------------------------------|
C|-----------------10-9----------------------------10-9-----------12-9-------|
G|-9h10p9---------------10-9---------9h10p9-------------10-9-----------------|
C|--------12-9---------------12-9-----------12-9-------------12-9------------|


  Morgan
D|---------------------------------------------------------------------------|
A|---------------------------------------------------------------------------|
F|---------------------------------------------------------------------------|
C|-----------------3-2----------------------------3-2------------------------|
G|-2h3p2---2-----------3-2---2------2h3p2---2---------3-2---2-3-3------------|
C|-------5-2---------------5-2------------5-2-------------5-2-3-3------------|
 |PM                                                          ___
 |Tara
D|---------------------------------------------------------------------------|
A|---------------------------------------------------------------------------|
F|---------------------------------------------------------------------------|
C|-----------------10-9----------------------------10-9----------------------|
G|-9h10p9---------------10-9---------9h10p9-------------10-9------3-3--------|
C|--------12-9---------------12-9-----------12-9-------------12-9-3-3--------|
  PM                                                              ___



Final Chord
Morgan & Tara
--------|
--------|
--------|
--------|
-2------|
-2------|



Thanks for looking :)


************************************

| /   slide up
| \   slide down
| h   hammer-on
| p   pull-off
| ~   vibrato
| +   harmonic
| sh  semi harmonic
| x   Mute note
| b   Bend
| pb  Pre-bend
| br  Bend release
| pbr Pre-bend release
| brb Bend release bend

************************************
Tap to rate this tab
 
# A B C D E F G H I J K L M N O P Q R S T U V W X Y Z