Guitaretab - guitar tabs
Song name
# A B C D E F G H I J K L M N O P Q R S T U V W X Y Z

Kittie - Immortal tab

----------------------------------------------------------------------------
                              iMMoRTaL-KiTTiE
----------------------------------------------------------------------------
song-iMMoRTaL 
album-SPiT

                     


                     4x                 4x                  4x
|-----------------------|-------------------|-------------------|
|-----------------------|-------------------|-------------------|
|---------------5-4-4-3-|-------------------|-----------5-4-4-3-|
|-------4-5-5-4---------|--0-044-3-0-2--2-2-|---4-5-5-4---------|
|--*0*-2-2-2-2-2-2---2--|--0-044-3-0-2------|--2-2-2-2-2-2---2--|
|-----------------------|--0-044-3-0-2-2-2--|-------------------|
  *0*-only 1st time
[ Tab from: http://www.guitaretab.com/k/kittie/30568.html ]
                4x                                            4x
|-------------------|-----------------------------------------------|
|-------------------|-----------------------------------------------|
|-------------------|----7-7-7---7-7-7---7-7-7---7-7-7---8--8--8--8-|
|--0-044-3-0-2--2-2-|---7-7-----7-7-----7-7-----7-7-----------------|
|--0-044-3-0-2------|--5-5-5---5-5-5---5-5-5---5-5-5---10-10-10-10--|
|--0-044-3-0-2-2-2--|-----------------------------------------------|


                                                     7x
|---------------------------|-----------------------------|-------|
|---------------------------|-----------------------------|-------|
|---------------------------|-----------------------------|-------|
|--0-5-0-4-3-0-3-4-0-4-3-00-|--0-4-5-0-4-3-0-3-4-0-4-3-00-|--0-4~-|
|--0-5-0-4-3-0-3-4-0-4-3-00-|--0-4-5-0-4-3-0-3-4-0-4-3-00-|--0-4~-|
|--0-5-0-4-3-0-3-4-0-4-3-00-|--0-4-5-0-4-3-0-3-4-0-4-3-00-|--0-4~-|
 pm    ....................          ....................
Related for Immortal tab
Advertisement will be closed in 10 seconds