Song name
# A B C D E F G H I J K L M N O P Q R S T U V W X Y Z

Kittie - What Ive Always Wanted tab

None of the other tabs helped so I copied one and edited it, filled in the missing
parts, and corected what I thought was wrong.

Drop D tuning... Ohh, and be rough with youre picking, it will help!

-------------------         ---------------------|
-------------------         ---------------------|
------------------- x3      ---------------------| x9
-2-2-2-3-3-0-1-x---         -2-2-2-3-3-0-1-`-----|
-2-2-2-3-3-0-1-x---         -2-2-2-3-3-0-1-`-----|
-2-2-2-3-3-0-1-x---         -2-2-2-3-3-0-1-`-----|

-------------------------------------------------|
-------------------------------------------------|
-------------------------------------------------|
-3-x16-2-x16-3-x16-2-x16-------------------------|
-3-x16-2-x16-3-x16-2-x16-------------------------|
-3-x16-2-x16-3-x16-2-x16-------------------------|

-------------------         ---------------------|
-------------------         ---------------------|
------------------- x3      ---------------------|
-2-2-2-3-3-0-1-x---         -2-2-2-3-3-0-1`------|
-2-2-2-3-3-0-1-x---         -2-2-2-3-3-0-1`------|
-2-2-2-3-3-0-1-x---         -2-2-2-3-3-0-1`------|

-------------------------------------------------|
-------------------------------------------------|
-------------------------------------------------|
-3-x16-2-x16-3-x16-2-x16-3-x16-2-x16-3-x16-2-x16-|
-3-x16-2-x16-3-x16-2-x16-3-x16-2-x16-3-x16-2-x16-|
-3-x16-2-x16-3-x16-2-x16-3-x16-2-x16-3-x16-2-x16-|

-------------------------------------------------|
-------------------------------------------------|
-------------------------------------------------|
-2-2-3--1--1--1--1-------------------------------| x3
-2-2-3--1--1--1--1-------------------------------|
-2-2-3--1--1--1--1-------------------------------|
|---|

--------------------    -------------------------|
--------------------    -------------------------|
--------------------    -------------------------|
-1-1-1---3-3-3------    -2-2-3--1--1--1--1-------| x3
-1-1-1---3-3-3------    -2-2-3--1--1--1--1-------|
-1-1-1---3-3-3------    -2-2-3--1--1--1--1-------|
|-|     |-|             |---|

--------------------    -------------------------|
--------------------    -------------------------|
--------------------    -------------------------|
-1-1-1---3-3-3------    -2-2-3--1--1--1--1-------| x3
-1-1-1---3-3-3------    -2-2-3--1--1--1--1-------|
-1-1-1---3-3-3------    -2-2-3--1--1--1--1-------|
|-|     |-|             |---|

--------------------    -------------------------|
--------------------    -------------------------|
--------------------    -------------------------|
-1-1-1---3-3-3------    -2-2-3--1--1--1--1-------| x3
-1-1-1---3-3-3------    -2-2-3--1--1--1--1-------|
-1-1-1---3-3-3------    -2-2-3--1--1--1--1-------|
|-|     |-|             |---|

Bass solo wait  18 seconds

-------------------------------------------------|
-------------------------------------------------|
-------------------------------------------------|
-3-x16-2-x16-3-x16-2-x16-3-x16-2-x16-3-x16-2-x16-|
-3-x16-2-x16-3-x16-2-x16-3-x16-2-x16-3-x16-2-x16-|
-3-x16-2-x16-3-x16-2-x16-3-x16-2-x16-3-x16-2-x16-|


-------------------------------------------------|
-------------------------------------------------|
-------------------------------------------------|
-2-2-3--1--1--1--1-------------------------------| x3
-2-2-3--1--1--1--1-------------------------------|
-2-2-3--1--1--1--1-------------------------------|
|---|

--------------------    -------------------------|
--------------------    -------------------------|
--------------------    -------------------------|
-1-1-1---3-3-3------    -2-2-3--1--1--1--1-------| x3
-1-1-1---3-3-3------    -2-2-3--1--1--1--1-------|
-1-1-1---3-3-3------    -2-2-3--1--1--1--1-------|
|-|     |-|             |---|

--------------------    -------------------------|
--------------------    -------------------------|
--------------------    -------------------------|
-1-1-1---3-3-3------    -2-2-3--1--1--1--1-------| x3
-1-1-1---3-3-3------    -2-2-3--1--1--1--1-------|
-1-1-1---3-3-3------    -2-2-3--1--1--1--1-------|
|-|     |-|             |---|

--------------------    -------------------------|
--------------------    -------------------------|
--------------------    -------------------------|
-1-1-1---3-3-3------    -2-2-3--1--1--1--1-------| x3
-1-1-1---3-3-3------    -2-2-3--1--1--1--1-------|
-1-1-1---3-3-3------    -2-2-3--1--1--1--1-------|
|-|     |-|             |---|

-------------------------------------------------|
-------------------------------------------------|
-------------------------------------------------|
-1h2-2-2-1`--------------------------------------| x16
-1h2-2-2-1`--------------------------------------|
-1h2-2-2-1`--------------------------------------|
    |---|

-------------------------------------------------|
-------------------------------------------------|
-------------------------------------------------|
-2-2-3--1--1--1--1-------------------------------| x3
-2-2-3--1--1--1--1-------------------------------|
-2-2-3--1--1--1--1-------------------------------|
|---|

--------------------    -------------------------|
--------------------    -------------------------|
--------------------    -------------------------|
-1-1-1---3-3-3------    -2-2-3--1--1--1--1-------| x3
-1-1-1---3-3-3------    -2-2-3--1--1--1--1-------|
-1-1-1---3-3-3------    -2-2-3--1--1--1--1-------|
|-|     |-|             |---|
Tap to rate this tab
# A B C D E F G H I J K L M N O P Q R S T U V W X Y Z